ISO-10303-21;
HEADER;
/* Generated by software containing ST-Developer
 * from STEP Tools, Inc. (www.steptools.com) 
 */
/* OPTION: using custom schema-name function */

FILE_DESCRIPTION(
/* description */ (''),
/* implementation_level */ '2;1');

FILE_NAME(
/* name */ '170030R050.0-MEGA-64.stp',
/* time_stamp */ '2017-12-13T13:51:45+05:00',
/* author */ (''),
/* organization */ (''),
/* preprocessor_version */ 'ST-DEVELOPER v16',
/* originating_system */ 'SIEMENS PLM Software NX 11.0',
/* authorisation */ '');

FILE_SCHEMA (('AUTOMOTIVE_DESIGN { 1 0 10303 214 3 1 1 1 }'));
ENDSEC;

DATA;
#10=CONSTRUCTIVE_GEOMETRY_REPRESENTATION_RELATIONSHIP(
'supplemental geometry','',#32,#11);
#11=CONSTRUCTIVE_GEOMETRY_REPRESENTATION('supplemental geometry',(#196,
#197,#198),#314);
#12=PROPERTY_DEFINITION_REPRESENTATION(#16,#14);
#13=PROPERTY_DEFINITION_REPRESENTATION(#17,#15);
#14=REPRESENTATION('',(#18),#314);
#15=REPRESENTATION('',(#19),#314);
#16=PROPERTY_DEFINITION('pmi validation property','',#23);
#17=PROPERTY_DEFINITION('pmi validation property','',#23);
#18=VALUE_REPRESENTATION_ITEM('number of annotations',COUNT_MEASURE(0.));
#19=VALUE_REPRESENTATION_ITEM('number of views',COUNT_MEASURE(0.));
#20=SHAPE_REPRESENTATION_RELATIONSHIP('None',
'relationship between 170030R050.0-MEGA-64-None and 170030R050.0-MEGA-
64-None',#32,#21);
#21=ADVANCED_BREP_SHAPE_REPRESENTATION('170030R050.0-MEGA-64-None',(#49,
#50,#51),#314);
#22=SHAPE_DEFINITION_REPRESENTATION(#23,#32);
#23=PRODUCT_DEFINITION_SHAPE('','',#24);
#24=PRODUCT_DEFINITION(' ','',#26,#25);
#25=PRODUCT_DEFINITION_CONTEXT('part definition',#31,'design');
#26=PRODUCT_DEFINITION_FORMATION_WITH_SPECIFIED_SOURCE(' ',' ',#28,
 .NOT_KNOWN.);
#27=PRODUCT_RELATED_PRODUCT_CATEGORY('part','',(#28));
#28=PRODUCT('170030R050.0-MEGA-64','170030R050.0-MEGA-64',' ',(#29));
#29=PRODUCT_CONTEXT(' ',#31,'mechanical');
#30=APPLICATION_PROTOCOL_DEFINITION('international standard',
'automotive_design',2010,#31);
#31=APPLICATION_CONTEXT(
'core data for automotive mechanical design processes');
#32=SHAPE_REPRESENTATION('170030R050.0-MEGA-64-None',(#195),#314);
#33=CONICAL_SURFACE('',#218,2.50000000000003,45.000000000001);
#34=SURFACE_STYLE_USAGE(.BOTH.,#37);
#35=SURFACE_STYLE_USAGE(.BOTH.,#38);
#36=SURFACE_STYLE_USAGE(.BOTH.,#39);
#37=SURFACE_SIDE_STYLE('',(#40));
#38=SURFACE_SIDE_STYLE('',(#41));
#39=SURFACE_SIDE_STYLE('',(#42));
#40=SURFACE_STYLE_FILL_AREA(#43);
#41=SURFACE_STYLE_FILL_AREA(#44);
#42=SURFACE_STYLE_FILL_AREA(#45);
#43=FILL_AREA_STYLE('',(#46));
#44=FILL_AREA_STYLE('',(#47));
#45=FILL_AREA_STYLE('',(#48));
#46=FILL_AREA_STYLE_COLOUR('',#190);
#47=FILL_AREA_STYLE_COLOUR('',#191);
#48=FILL_AREA_STYLE_COLOUR('',#190);
#49=MANIFOLD_SOLID_BREP('NOCUT',#52);
#50=MANIFOLD_SOLID_BREP('CUT',#53);
#51=MANIFOLD_SOLID_BREP('NOCUT',#54);
#52=CLOSED_SHELL('',(#69,#70,#71,#72,#73));
#53=CLOSED_SHELL('',(#74,#75,#76,#77));
#54=CLOSED_SHELL('',(#78,#79,#80,#81));
#55=TOROIDAL_SURFACE('',#205,6.40000000000045,5.);
#56=TOROIDAL_SURFACE('',#213,1.00000000000051,0.5);
#57=PLANE('',#203);
#58=PLANE('',#207);
#59=PLANE('',#209);
#60=PLANE('',#214);
#61=PLANE('',#216);
#62=PLANE('',#221);
#63=FACE_OUTER_BOUND('',#102,.T.);
#64=FACE_OUTER_BOUND('',#107,.T.);
#65=FACE_OUTER_BOUND('',#108,.T.);
#66=FACE_OUTER_BOUND('',#113,.T.);
#67=FACE_OUTER_BOUND('',#114,.T.);
#68=FACE_OUTER_BOUND('',#119,.T.);
#69=ADVANCED_FACE('',(#86,#87),#82,.T.);
#70=ADVANCED_FACE('',(#63),#57,.T.);
#71=ADVANCED_FACE('',(#88,#89),#55,.F.);
#72=ADVANCED_FACE('',(#90,#91),#83,.T.);
#73=ADVANCED_FACE('',(#64),#58,.T.);
#74=ADVANCED_FACE('',(#65),#59,.T.);
#75=ADVANCED_FACE('',(#92,#93),#84,.T.);
#76=ADVANCED_FACE('',(#94,#95),#56,.T.);
#77=ADVANCED_FACE('',(#66),#60,.T.);
#78=ADVANCED_FACE('',(#67),#61,.T.);
#79=ADVANCED_FACE('',(#96,#97),#33,.T.);
#80=ADVANCED_FACE('',(#98,#99),#85,.T.);
#81=ADVANCED_FACE('',(#68),#62,.F.);
#82=CYLINDRICAL_SURFACE('',#201,3.00000000000039);
#83=CYLINDRICAL_SURFACE('',#206,1.40000000000047);
#84=CYLINDRICAL_SURFACE('',#211,1.50000000000049);
#85=CYLINDRICAL_SURFACE('',#220,3.00000000000039);
#86=FACE_BOUND('',#100,.T.);
#87=FACE_BOUND('',#101,.T.);
#88=FACE_BOUND('',#103,.T.);
#89=FACE_BOUND('',#104,.T.);
#90=FACE_BOUND('',#105,.T.);
#91=FACE_BOUND('',#106,.T.);
#92=FACE_BOUND('',#109,.T.);
#93=FACE_BOUND('',#110,.T.);
#94=FACE_BOUND('',#111,.T.);
#95=FACE_BOUND('',#112,.T.);
#96=FACE_BOUND('',#115,.T.);
#97=FACE_BOUND('',#116,.T.);
#98=FACE_BOUND('',#117,.T.);
#99=FACE_BOUND('',#118,.T.);
#100=EDGE_LOOP('',(#120));
#101=EDGE_LOOP('',(#121));
#102=EDGE_LOOP('',(#122));
#103=EDGE_LOOP('',(#123));
#104=EDGE_LOOP('',(#124));
#105=EDGE_LOOP('',(#125));
#106=EDGE_LOOP('',(#126));
#107=EDGE_LOOP('',(#127));
#108=EDGE_LOOP('',(#128));
#109=EDGE_LOOP('',(#129));
#110=EDGE_LOOP('',(#130));
#111=EDGE_LOOP('',(#131));
#112=EDGE_LOOP('',(#132));
#113=EDGE_LOOP('',(#133));
#114=EDGE_LOOP('',(#134));
#115=EDGE_LOOP('',(#135));
#116=EDGE_LOOP('',(#136));
#117=EDGE_LOOP('',(#137));
#118=EDGE_LOOP('',(#138));
#119=EDGE_LOOP('',(#139));
#120=ORIENTED_EDGE('',*,*,#150,.T.);
#121=ORIENTED_EDGE('',*,*,#151,.F.);
#122=ORIENTED_EDGE('',*,*,#152,.F.);
#123=ORIENTED_EDGE('',*,*,#153,.T.);
#124=ORIENTED_EDGE('',*,*,#150,.F.);
#125=ORIENTED_EDGE('',*,*,#152,.T.);
#126=ORIENTED_EDGE('',*,*,#153,.F.);
#127=ORIENTED_EDGE('',*,*,#151,.T.);
#128=ORIENTED_EDGE('',*,*,#154,.T.);
#129=ORIENTED_EDGE('',*,*,#155,.T.);
#130=ORIENTED_EDGE('',*,*,#154,.F.);
#131=ORIENTED_EDGE('',*,*,#156,.T.);
#132=ORIENTED_EDGE('',*,*,#155,.F.);
#133=ORIENTED_EDGE('',*,*,#156,.F.);
#134=ORIENTED_EDGE('',*,*,#157,.T.);
#135=ORIENTED_EDGE('',*,*,#158,.T.);
#136=ORIENTED_EDGE('',*,*,#157,.F.);
#137=ORIENTED_EDGE('',*,*,#159,.F.);
#138=ORIENTED_EDGE('',*,*,#158,.F.);
#139=ORIENTED_EDGE('',*,*,#159,.T.);
#140=VERTEX_POINT('',#281);
#141=VERTEX_POINT('',#283);
#142=VERTEX_POINT('',#286);
#143=VERTEX_POINT('',#289);
#144=VERTEX_POINT('',#294);
#145=VERTEX_POINT('',#297);
#146=VERTEX_POINT('',#300);
#147=VERTEX_POINT('',#304);
#148=VERTEX_POINT('',#307);
#149=VERTEX_POINT('',#310);
#150=EDGE_CURVE('',#140,#140,#160,.T.);
#151=EDGE_CURVE('',#141,#141,#161,.T.);
#152=EDGE_CURVE('',#142,#142,#162,.T.);
#153=EDGE_CURVE('',#143,#143,#163,.T.);
#154=EDGE_CURVE('',#144,#144,#164,.T.);
#155=EDGE_CURVE('',#145,#145,#165,.T.);
#156=EDGE_CURVE('',#146,#146,#166,.T.);
#157=EDGE_CURVE('',#147,#147,#167,.T.);
#158=EDGE_CURVE('',#148,#148,#168,.T.);
#159=EDGE_CURVE('',#149,#149,#169,.T.);
#160=CIRCLE('',#199,3.00000000000042);
#161=CIRCLE('',#200,3.00000000000039);
#162=CIRCLE('',#202,1.40000000000048);
#163=CIRCLE('',#204,1.40000000000045);
#164=CIRCLE('',#208,1.50000000000048);
#165=CIRCLE('',#210,1.5000000000005);
#166=CIRCLE('',#212,1.00000000000052);
#167=CIRCLE('',#215,2.50000000000003);
#168=CIRCLE('',#217,3.00000000000003);
#169=CIRCLE('',#219,3.00000000000039);
#170=PRESENTATION_LAYER_ASSIGNMENT('1','Layer 1',(#196,#197,#198,#51));
#171=PRESENTATION_LAYER_ASSIGNMENT('2','Layer 2',(#49));
#172=PRESENTATION_LAYER_ASSIGNMENT('3','Layer 3',(#50));
#173=STYLED_ITEM('',(#179),#196);
#174=STYLED_ITEM('',(#180),#197);
#175=STYLED_ITEM('',(#181),#198);
#176=STYLED_ITEM('',(#182),#49);
#177=STYLED_ITEM('',(#183),#50);
#178=STYLED_ITEM('',(#184),#51);
#179=PRESENTATION_STYLE_ASSIGNMENT((#185));
#180=PRESENTATION_STYLE_ASSIGNMENT((#186));
#181=PRESENTATION_STYLE_ASSIGNMENT((#187));
#182=PRESENTATION_STYLE_ASSIGNMENT((#34));
#183=PRESENTATION_STYLE_ASSIGNMENT((#35));
#184=PRESENTATION_STYLE_ASSIGNMENT((#36));
#185=CURVE_STYLE('',#192,POSITIVE_LENGTH_MEASURE(0.18),#188);
#186=CURVE_STYLE('',#193,POSITIVE_LENGTH_MEASURE(0.18),#189);
#187=CURVE_STYLE('',#194,POSITIVE_LENGTH_MEASURE(0.18),#189);
#188=COLOUR_RGB('Strong Stone',0.576470588235294,0.54508278019379,0.392156862745098);
#189=COLOUR_RGB('Medium Maroon',0.6,0.4,0.4);
#190=COLOUR_RGB('Medium Gray',0.490196078431373,0.490196078431373,0.490196078431373);
#191=COLOUR_RGB('Light Gray',0.8,0.8,0.8);
#192=DRAUGHTING_PRE_DEFINED_CURVE_FONT('continuous');
#193=DRAUGHTING_PRE_DEFINED_CURVE_FONT('continuous');
#194=DRAUGHTING_PRE_DEFINED_CURVE_FONT('continuous');
#195=AXIS2_PLACEMENT_3D('',#276,#222,#223);
#196=AXIS2_PLACEMENT_3D('MCS',#277,#224,#225);
#197=AXIS2_PLACEMENT_3D('CIP',#278,#226,#227);
#198=AXIS2_PLACEMENT_3D('PCS',#279,#228,#229);
#199=AXIS2_PLACEMENT_3D('',#280,#230,#231);
#200=AXIS2_PLACEMENT_3D('',#282,#232,#233);
#201=AXIS2_PLACEMENT_3D('',#284,#234,#235);
#202=AXIS2_PLACEMENT_3D('',#285,#236,#237);
#203=AXIS2_PLACEMENT_3D('',#287,#238,#239);
#204=AXIS2_PLACEMENT_3D('',#288,#240,#241);
#205=AXIS2_PLACEMENT_3D('',#290,#242,#243);
#206=AXIS2_PLACEMENT_3D('',#291,#244,#245);
#207=AXIS2_PLACEMENT_3D('',#292,#246,#247);
#208=AXIS2_PLACEMENT_3D('',#293,#248,#249);
#209=AXIS2_PLACEMENT_3D('',#295,#250,#251);
#210=AXIS2_PLACEMENT_3D('',#296,#252,#253);
#211=AXIS2_PLACEMENT_3D('',#298,#254,#255);
#212=AXIS2_PLACEMENT_3D('',#299,#256,#257);
#213=AXIS2_PLACEMENT_3D('',#301,#258,#259);
#214=AXIS2_PLACEMENT_3D('',#302,#260,#261);
#215=AXIS2_PLACEMENT_3D('',#303,#262,#263);
#216=AXIS2_PLACEMENT_3D('',#305,#264,#265);
#217=AXIS2_PLACEMENT_3D('',#306,#266,#267);
#218=AXIS2_PLACEMENT_3D('',#308,#268,#269);
#219=AXIS2_PLACEMENT_3D('',#309,#270,#271);
#220=AXIS2_PLACEMENT_3D('',#311,#272,#273);
#221=AXIS2_PLACEMENT_3D('',#312,#274,#275);
#222=DIRECTION('',(0.,0.,1.));
#223=DIRECTION('',(1.,0.,0.));
#224=DIRECTION('',(0.,0.,1.));
#225=DIRECTION('',(1.,0.,0.));
#226=DIRECTION('',(0.,0.,1.));
#227=DIRECTION('',(1.,0.,0.));
#228=DIRECTION('',(0.,0.,1.));
#229=DIRECTION('',(1.,0.,0.));
#230=DIRECTION('',(0.,9.59988589803542E-15,1.));
#231=DIRECTION('',(0.,-1.,9.5409791178711E-15));
#232=DIRECTION('',(0.,0.,1.));
#233=DIRECTION('',(1.,0.,0.));
#234=DIRECTION('',(0.,9.59988589803542E-15,1.));
#235=DIRECTION('',(0.,1.,-9.83009969720063E-15));
#236=DIRECTION('',(0.,9.59988589803542E-15,1.));
#237=DIRECTION('',(0.,-1.,9.91270557700693E-15));
#238=DIRECTION('',(0.,-9.59988589803542E-15,-1.));
#239=DIRECTION('',(0.,-1.,9.59995971605565E-15));
#240=DIRECTION('',(0.,9.59988589803542E-15,1.));
#241=DIRECTION('',(0.,-1.,9.91270557700714E-15));
#242=DIRECTION('',(0.,9.59988589803542E-15,1.));
#243=DIRECTION('',(0.,1.,-9.58662973566092E-15));
#244=DIRECTION('',(0.,9.59988589803542E-15,1.));
#245=DIRECTION('',(0.,1.,-9.912705577007E-15));
#246=DIRECTION('',(0.,0.,1.));
#247=DIRECTION('',(1.,0.,0.));
#248=DIRECTION('',(0.,9.47390314346769E-15,1.));
#249=DIRECTION('',(0.,-1.,9.25185853854001E-15));
#250=DIRECTION('',(0.,9.47390314346769E-15,1.));
#251=DIRECTION('',(0.,1.,-9.47332490230934E-15));
#252=DIRECTION('',(0.,9.47390314346769E-15,1.));
#253=DIRECTION('',(0.,-1.,9.25185853853989E-15));
#254=DIRECTION('',(0.,9.47390314346769E-15,1.));
#255=DIRECTION('',(0.,1.,-9.25185853853995E-15));
#256=DIRECTION('',(0.,9.47390314346769E-15,1.));
#257=DIRECTION('',(0.,-1.,8.67361737987952E-15));
#258=DIRECTION('',(0.,9.47390314346769E-15,1.));
#259=DIRECTION('',(0.,1.,-9.25185853853982E-15));
#260=DIRECTION('',(0.,-9.47390314346769E-15,-1.));
#261=DIRECTION('',(0.,-1.,9.47332490230934E-15));
#262=DIRECTION('',(0.,9.59988589803542E-15,1.));
#263=DIRECTION('',(0.,-1.,8.32667268468857E-15));
#264=DIRECTION('',(0.,9.59988589803542E-15,1.));
#265=DIRECTION('',(0.,1.,-9.5964902691037E-15));
#266=DIRECTION('',(0.,9.59988589803542E-15,1.));
#267=DIRECTION('',(0.,-1.,9.25185853854288E-15));
#268=DIRECTION('',(0.,-9.59988589803542E-15,-1.));
#269=DIRECTION('',(0.,-1.,9.66253954100165E-15));
#270=DIRECTION('',(0.,0.,-1.));
#271=DIRECTION('',(1.,0.,0.));
#272=DIRECTION('',(0.,9.59988589803542E-15,1.));
#273=DIRECTION('',(0.,1.,-9.83009969720063E-15));
#274=DIRECTION('',(0.,0.,1.));
#275=DIRECTION('',(1.,0.,0.));
#276=CARTESIAN_POINT('',(0.,0.,0.));
#277=CARTESIAN_POINT('',(0.,0.,0.));
#278=CARTESIAN_POINT('',(0.,-1.37573167987593E-13,-14.));
#279=CARTESIAN_POINT('',(0.,3.42043178650475E-13,36.));
#280=CARTESIAN_POINT('',(0.,-4.51580378305341E-14,-4.33393944403529));
#281=CARTESIAN_POINT('',(0.,-3.00000000000046,-4.33393944403527));
#282=CARTESIAN_POINT('',(0.,-3.55271367880033E-15,0.));
#283=CARTESIAN_POINT('',(3.00000000000039,-3.55271367880033E-15,0.));
#284=CARTESIAN_POINT('',(0.,-1.09151458557189E-13,-10.9999999999999));
#285=CARTESIAN_POINT('',(0.,-1.0915145855719E-13,-11.));
#286=CARTESIAN_POINT('',(0.,-1.40000000000059,-11.));
#287=CARTESIAN_POINT('',(0.,1.40000000000037,-11.));
#288=CARTESIAN_POINT('',(0.,-8.03518008630837E-14,-8.00000000000001));
#289=CARTESIAN_POINT('',(0.,-1.40000000000053,-8.));
#290=CARTESIAN_POINT('',(0.,-8.06646416329215E-14,-7.99999999999997));
#291=CARTESIAN_POINT('',(0.,-1.09151458557189E-13,-10.9999999999999));
#292=CARTESIAN_POINT('',(0.,0.,0.));
#293=CARTESIAN_POINT('',(0.,-1.0915145855719E-13,-11.));
#294=CARTESIAN_POINT('',(0.,-1.50000000000059,-11.));
#295=CARTESIAN_POINT('',(0.,3.70464888080878E-13,-11.));
#296=CARTESIAN_POINT('',(0.,-1.32836216415859E-13,-13.5));
#297=CARTESIAN_POINT('',(0.,-1.50000000000064,-13.5));
#298=CARTESIAN_POINT('',(0.,-1.37573167987593E-13,-14.));
#299=CARTESIAN_POINT('',(0.,-1.37573167987593E-13,-14.));
#300=CARTESIAN_POINT('',(0.,-1.00000000000066,-14.));
#301=CARTESIAN_POINT('',(0.,-1.32706345912226E-13,-13.5));
#302=CARTESIAN_POINT('',(0.,1.00000000000038,-14.));
#303=CARTESIAN_POINT('',(0.,3.42043178650475E-13,36.));
#304=CARTESIAN_POINT('',(0.,-2.49999999999969,36.));
#305=CARTESIAN_POINT('',(0.,3.70370401014952E-13,36.));
#306=CARTESIAN_POINT('',(0.,3.37243235701457E-13,35.5));
#307=CARTESIAN_POINT('',(0.,-2.9999999999997,35.5));
#308=CARTESIAN_POINT('',(0.,3.42043178650475E-13,36.));
#309=CARTESIAN_POINT('',(0.,-3.55271367880033E-15,0.));
#310=CARTESIAN_POINT('',(3.00000000000039,-3.55271367880033E-15,0.));
#311=CARTESIAN_POINT('',(0.,-1.09151458557189E-13,-10.9999999999999));
#312=CARTESIAN_POINT('',(0.,0.,0.));
#313=MECHANICAL_DESIGN_GEOMETRIC_PRESENTATION_REPRESENTATION('',(#173,#174,
#175,#176,#177,#178),#314);
#314=(
GEOMETRIC_REPRESENTATION_CONTEXT(3)
GLOBAL_UNCERTAINTY_ASSIGNED_CONTEXT((#315))
GLOBAL_UNIT_ASSIGNED_CONTEXT((#321,#317,#316))
REPRESENTATION_CONTEXT('170030R050','TOP_LEVEL_ASSEMBLY_PART')
);
#315=UNCERTAINTY_MEASURE_WITH_UNIT(LENGTH_MEASURE(2.E-5),#321,
'DISTANCE_ACCURACY_VALUE','Maximum Tolerance applied to model');
#316=(
NAMED_UNIT(*)
SI_UNIT($,.STERADIAN.)
SOLID_ANGLE_UNIT()
);
#317=(
CONVERSION_BASED_UNIT('DEGREE',#319)
NAMED_UNIT(#318)
PLANE_ANGLE_UNIT()
);
#318=DIMENSIONAL_EXPONENTS(0.,0.,0.,0.,0.,0.,0.);
#319=PLANE_ANGLE_MEASURE_WITH_UNIT(PLANE_ANGLE_MEASURE(0.0174532925),#320);
#320=(
NAMED_UNIT(*)
PLANE_ANGLE_UNIT()
SI_UNIT($,.RADIAN.)
);
#321=(
LENGTH_UNIT()
NAMED_UNIT(*)
SI_UNIT(.MILLI.,.METRE.)
);
ENDSEC;
END-ISO-10303-21;
