ISO-10303-21;
HEADER;
/* Generated by software containing ST-Developer
 * from STEP Tools, Inc. (www.steptools.com) 
 */
/* OPTION: using custom schema-name function */

FILE_DESCRIPTION(
/* description */ (''),
/* implementation_level */ '2;1');

FILE_NAME(
/* name */ '170020R050.0-MEGA-64.stp',
/* time_stamp */ '2017-12-13T13:51:47+05:00',
/* author */ (''),
/* organization */ (''),
/* preprocessor_version */ 'ST-DEVELOPER v16',
/* originating_system */ 'SIEMENS PLM Software NX 11.0',
/* authorisation */ '');

FILE_SCHEMA (('AUTOMOTIVE_DESIGN { 1 0 10303 214 3 1 1 1 }'));
ENDSEC;

DATA;
#10=CONSTRUCTIVE_GEOMETRY_REPRESENTATION_RELATIONSHIP(
'supplemental geometry','',#32,#11);
#11=CONSTRUCTIVE_GEOMETRY_REPRESENTATION('supplemental geometry',(#195,
#196,#197),#337);
#12=PROPERTY_DEFINITION_REPRESENTATION(#16,#14);
#13=PROPERTY_DEFINITION_REPRESENTATION(#17,#15);
#14=REPRESENTATION('',(#18),#337);
#15=REPRESENTATION('',(#19),#337);
#16=PROPERTY_DEFINITION('pmi validation property','',#23);
#17=PROPERTY_DEFINITION('pmi validation property','',#23);
#18=VALUE_REPRESENTATION_ITEM('number of annotations',COUNT_MEASURE(0.));
#19=VALUE_REPRESENTATION_ITEM('number of views',COUNT_MEASURE(0.));
#20=SHAPE_REPRESENTATION_RELATIONSHIP('None',
'relationship between 170020R050.0-MEGA-64-None and 170020R050.0-MEGA-
64-None',#32,#21);
#21=ADVANCED_BREP_SHAPE_REPRESENTATION('170020R050.0-MEGA-64-None',(#50,
#51,#52),#337);
#22=SHAPE_DEFINITION_REPRESENTATION(#23,#32);
#23=PRODUCT_DEFINITION_SHAPE('','',#24);
#24=PRODUCT_DEFINITION(' ','',#26,#25);
#25=PRODUCT_DEFINITION_CONTEXT('part definition',#31,'design');
#26=PRODUCT_DEFINITION_FORMATION_WITH_SPECIFIED_SOURCE(' ',' ',#28,
 .NOT_KNOWN.);
#27=PRODUCT_RELATED_PRODUCT_CATEGORY('part','',(#28));
#28=PRODUCT('170020R050.0-MEGA-64','170020R050.0-MEGA-64',' ',(#29));
#29=PRODUCT_CONTEXT(' ',#31,'mechanical');
#30=APPLICATION_PROTOCOL_DEFINITION('international standard',
'automotive_design',2010,#31);
#31=APPLICATION_CONTEXT(
'core data for automotive mechanical design processes');
#32=SHAPE_REPRESENTATION('170020R050.0-MEGA-64-None',(#194),#337);
#33=CONICAL_SURFACE('',#216,3.,45.0000000000002);
#34=(
BOUNDED_SURFACE()
B_SPLINE_SURFACE(3,3,((#297,#298,#299,#300,#301,#302,#303),(#304,#305,#306,
#307,#308,#309,#310),(#311,#312,#313,#314,#315,#316,#317),(#318,#319,#320,
#321,#322,#323,#324)),.UNSPECIFIED.,.F.,.T.,.F.)
B_SPLINE_SURFACE_WITH_KNOTS((4,4),(1,3,3,3,1),(0.,1.),(-0.5,0.,0.5,1.,1.5),
 .UNSPECIFIED.)
GEOMETRIC_REPRESENTATION_ITEM()
RATIONAL_B_SPLINE_SURFACE(((1.,0.333333333333333,0.333333333333333,1.,0.333333333333333,
0.333333333333333,1.),(0.804737854124366,0.268245951374789,0.268245951374789,
0.804737854124366,0.268245951374789,0.268245951374789,0.804737854124366),
(0.804737854124366,0.268245951374789,0.268245951374789,0.804737854124366,
0.268245951374789,0.268245951374789,0.804737854124366),(1.,0.333333333333333,
0.333333333333333,1.,0.333333333333333,0.333333333333333,1.)))
REPRESENTATION_ITEM('')
SURFACE()
);
#35=SURFACE_STYLE_USAGE(.BOTH.,#38);
#36=SURFACE_STYLE_USAGE(.BOTH.,#39);
#37=SURFACE_STYLE_USAGE(.BOTH.,#40);
#38=SURFACE_SIDE_STYLE('',(#41));
#39=SURFACE_SIDE_STYLE('',(#42));
#40=SURFACE_SIDE_STYLE('',(#43));
#41=SURFACE_STYLE_FILL_AREA(#44);
#42=SURFACE_STYLE_FILL_AREA(#45);
#43=SURFACE_STYLE_FILL_AREA(#46);
#44=FILL_AREA_STYLE('',(#47));
#45=FILL_AREA_STYLE('',(#48));
#46=FILL_AREA_STYLE('',(#49));
#47=FILL_AREA_STYLE_COLOUR('',#189);
#48=FILL_AREA_STYLE_COLOUR('',#190);
#49=FILL_AREA_STYLE_COLOUR('',#189);
#50=MANIFOLD_SOLID_BREP('NOCUT',#53);
#51=MANIFOLD_SOLID_BREP('CUT',#54);
#52=MANIFOLD_SOLID_BREP('NOCUT',#55);
#53=CLOSED_SHELL('',(#69,#70,#71,#72,#73));
#54=CLOSED_SHELL('',(#74,#75,#76,#77));
#55=CLOSED_SHELL('',(#78,#79,#80,#81));
#56=PLANE('',#205);
#57=PLANE('',#206);
#58=PLANE('',#208);
#59=PLANE('',#212);
#60=PLANE('',#214);
#61=PLANE('',#219);
#62=FACE_OUTER_BOUND('',#106,.T.);
#63=FACE_OUTER_BOUND('',#107,.T.);
#64=FACE_OUTER_BOUND('',#108,.T.);
#65=FACE_OUTER_BOUND('',#113,.T.);
#66=FACE_OUTER_BOUND('',#114,.T.);
#67=FACE_OUTER_BOUND('',#119,.T.);
#68=TOROIDAL_SURFACE('',#202,5.94999999999998,5.);
#69=ADVANCED_FACE('',(#86,#87),#82,.T.);
#70=ADVANCED_FACE('',(#88,#89),#68,.F.);
#71=ADVANCED_FACE('',(#90,#91),#83,.T.);
#72=ADVANCED_FACE('',(#62),#56,.T.);
#73=ADVANCED_FACE('',(#63),#57,.T.);
#74=ADVANCED_FACE('',(#64),#58,.T.);
#75=ADVANCED_FACE('',(#92,#93),#84,.T.);
#76=ADVANCED_FACE('',(#94,#95),#34,.T.);
#77=ADVANCED_FACE('',(#65),#59,.T.);
#78=ADVANCED_FACE('',(#66),#60,.T.);
#79=ADVANCED_FACE('',(#96,#97),#33,.T.);
#80=ADVANCED_FACE('',(#98,#99),#85,.T.);
#81=ADVANCED_FACE('',(#67),#61,.F.);
#82=CYLINDRICAL_SURFACE('',#200,3.);
#83=CYLINDRICAL_SURFACE('',#204,0.949999999999999);
#84=CYLINDRICAL_SURFACE('',#210,1.00000000000001);
#85=CYLINDRICAL_SURFACE('',#218,3.);
#86=FACE_BOUND('',#100,.T.);
#87=FACE_BOUND('',#101,.T.);
#88=FACE_BOUND('',#102,.T.);
#89=FACE_BOUND('',#103,.T.);
#90=FACE_BOUND('',#104,.T.);
#91=FACE_BOUND('',#105,.T.);
#92=FACE_BOUND('',#109,.T.);
#93=FACE_BOUND('',#110,.T.);
#94=FACE_BOUND('',#111,.T.);
#95=FACE_BOUND('',#112,.T.);
#96=FACE_BOUND('',#115,.T.);
#97=FACE_BOUND('',#116,.T.);
#98=FACE_BOUND('',#117,.T.);
#99=FACE_BOUND('',#118,.T.);
#100=EDGE_LOOP('',(#120));
#101=EDGE_LOOP('',(#121));
#102=EDGE_LOOP('',(#122));
#103=EDGE_LOOP('',(#123));
#104=EDGE_LOOP('',(#124));
#105=EDGE_LOOP('',(#125));
#106=EDGE_LOOP('',(#126));
#107=EDGE_LOOP('',(#127));
#108=EDGE_LOOP('',(#128));
#109=EDGE_LOOP('',(#129));
#110=EDGE_LOOP('',(#130));
#111=EDGE_LOOP('',(#131));
#112=EDGE_LOOP('',(#132));
#113=EDGE_LOOP('',(#133));
#114=EDGE_LOOP('',(#134));
#115=EDGE_LOOP('',(#135));
#116=EDGE_LOOP('',(#136));
#117=EDGE_LOOP('',(#137));
#118=EDGE_LOOP('',(#138));
#119=EDGE_LOOP('',(#139));
#120=ORIENTED_EDGE('',*,*,#150,.F.);
#121=ORIENTED_EDGE('',*,*,#151,.T.);
#122=ORIENTED_EDGE('',*,*,#150,.T.);
#123=ORIENTED_EDGE('',*,*,#152,.F.);
#124=ORIENTED_EDGE('',*,*,#152,.T.);
#125=ORIENTED_EDGE('',*,*,#153,.F.);
#126=ORIENTED_EDGE('',*,*,#153,.T.);
#127=ORIENTED_EDGE('',*,*,#151,.F.);
#128=ORIENTED_EDGE('',*,*,#154,.F.);
#129=ORIENTED_EDGE('',*,*,#154,.T.);
#130=ORIENTED_EDGE('',*,*,#155,.F.);
#131=ORIENTED_EDGE('',*,*,#155,.T.);
#132=ORIENTED_EDGE('',*,*,#156,.F.);
#133=ORIENTED_EDGE('',*,*,#156,.T.);
#134=ORIENTED_EDGE('',*,*,#157,.F.);
#135=ORIENTED_EDGE('',*,*,#157,.T.);
#136=ORIENTED_EDGE('',*,*,#158,.F.);
#137=ORIENTED_EDGE('',*,*,#159,.F.);
#138=ORIENTED_EDGE('',*,*,#158,.T.);
#139=ORIENTED_EDGE('',*,*,#159,.T.);
#140=VERTEX_POINT('',#277);
#141=VERTEX_POINT('',#279);
#142=VERTEX_POINT('',#282);
#143=VERTEX_POINT('',#285);
#144=VERTEX_POINT('',#290);
#145=VERTEX_POINT('',#293);
#146=VERTEX_POINT('',#296);
#147=VERTEX_POINT('',#327);
#148=VERTEX_POINT('',#330);
#149=VERTEX_POINT('',#333);
#150=EDGE_CURVE('',#140,#140,#160,.T.);
#151=EDGE_CURVE('',#141,#141,#161,.T.);
#152=EDGE_CURVE('',#142,#142,#162,.T.);
#153=EDGE_CURVE('',#143,#143,#163,.T.);
#154=EDGE_CURVE('',#144,#144,#164,.T.);
#155=EDGE_CURVE('',#145,#145,#165,.T.);
#156=EDGE_CURVE('',#146,#146,#166,.T.);
#157=EDGE_CURVE('',#147,#147,#167,.T.);
#158=EDGE_CURVE('',#148,#148,#168,.T.);
#159=EDGE_CURVE('',#149,#149,#169,.T.);
#160=CIRCLE('',#198,2.99999999999998);
#161=CIRCLE('',#199,3.);
#162=CIRCLE('',#201,0.949999999999999);
#163=CIRCLE('',#203,0.949999999999999);
#164=CIRCLE('',#207,1.00000000000001);
#165=CIRCLE('',#209,1.);
#166=CIRCLE('',#211,0.5);
#167=CIRCLE('',#213,2.5);
#168=CIRCLE('',#215,3.);
#169=CIRCLE('',#217,3.);
#170=PRESENTATION_LAYER_ASSIGNMENT('1','Layer 1',(#195,#196,#197,#52));
#171=PRESENTATION_LAYER_ASSIGNMENT('2','Layer 2',(#50));
#172=PRESENTATION_LAYER_ASSIGNMENT('3','Layer 3',(#51));
#173=STYLED_ITEM('',(#179),#195);
#174=STYLED_ITEM('',(#180),#196);
#175=STYLED_ITEM('',(#181),#197);
#176=STYLED_ITEM('',(#182),#50);
#177=STYLED_ITEM('',(#183),#51);
#178=STYLED_ITEM('',(#184),#52);
#179=PRESENTATION_STYLE_ASSIGNMENT((#185));
#180=PRESENTATION_STYLE_ASSIGNMENT((#186));
#181=PRESENTATION_STYLE_ASSIGNMENT((#187));
#182=PRESENTATION_STYLE_ASSIGNMENT((#35));
#183=PRESENTATION_STYLE_ASSIGNMENT((#36));
#184=PRESENTATION_STYLE_ASSIGNMENT((#37));
#185=CURVE_STYLE('',#191,POSITIVE_LENGTH_MEASURE(0.18),#188);
#186=CURVE_STYLE('',#192,POSITIVE_LENGTH_MEASURE(0.18),#188);
#187=CURVE_STYLE('',#193,POSITIVE_LENGTH_MEASURE(0.18),#188);
#188=COLOUR_RGB('Medium Maroon',0.6,0.4,0.4);
#189=COLOUR_RGB('Medium Gray',0.490196078431373,0.490196078431373,0.490196078431373);
#190=COLOUR_RGB('Light Gray',0.8,0.8,0.8);
#191=DRAUGHTING_PRE_DEFINED_CURVE_FONT('continuous');
#192=DRAUGHTING_PRE_DEFINED_CURVE_FONT('continuous');
#193=DRAUGHTING_PRE_DEFINED_CURVE_FONT('continuous');
#194=AXIS2_PLACEMENT_3D('',#272,#220,#221);
#195=AXIS2_PLACEMENT_3D('PCS',#273,#222,#223);
#196=AXIS2_PLACEMENT_3D('MCS',#274,#224,#225);
#197=AXIS2_PLACEMENT_3D('CIP',#275,#226,#227);
#198=AXIS2_PLACEMENT_3D('',#276,#228,#229);
#199=AXIS2_PLACEMENT_3D('',#278,#230,#231);
#200=AXIS2_PLACEMENT_3D('',#280,#232,#233);
#201=AXIS2_PLACEMENT_3D('',#281,#234,#235);
#202=AXIS2_PLACEMENT_3D('',#283,#236,#237);
#203=AXIS2_PLACEMENT_3D('',#284,#238,#239);
#204=AXIS2_PLACEMENT_3D('',#286,#240,#241);
#205=AXIS2_PLACEMENT_3D('',#287,#242,#243);
#206=AXIS2_PLACEMENT_3D('',#288,#244,#245);
#207=AXIS2_PLACEMENT_3D('',#289,#246,#247);
#208=AXIS2_PLACEMENT_3D('',#291,#248,#249);
#209=AXIS2_PLACEMENT_3D('',#292,#250,#251);
#210=AXIS2_PLACEMENT_3D('',#294,#252,#253);
#211=AXIS2_PLACEMENT_3D('',#295,#254,#255);
#212=AXIS2_PLACEMENT_3D('',#325,#256,#257);
#213=AXIS2_PLACEMENT_3D('',#326,#258,#259);
#214=AXIS2_PLACEMENT_3D('',#328,#260,#261);
#215=AXIS2_PLACEMENT_3D('',#329,#262,#263);
#216=AXIS2_PLACEMENT_3D('',#331,#264,#265);
#217=AXIS2_PLACEMENT_3D('',#332,#266,#267);
#218=AXIS2_PLACEMENT_3D('',#334,#268,#269);
#219=AXIS2_PLACEMENT_3D('',#335,#270,#271);
#220=DIRECTION('',(0.,0.,1.));
#221=DIRECTION('',(1.,0.,0.));
#222=DIRECTION('',(0.,0.,1.));
#223=DIRECTION('',(1.,0.,0.));
#224=DIRECTION('',(0.,0.,1.));
#225=DIRECTION('',(1.,0.,0.));
#226=DIRECTION('',(0.,0.,1.));
#227=DIRECTION('',(1.,0.,0.));
#228=DIRECTION('',(0.,0.,-1.));
#229=DIRECTION('',(-1.,0.,0.));
#230=DIRECTION('',(0.,0.,-1.));
#231=DIRECTION('',(1.,0.,0.));
#232=DIRECTION('',(0.,0.,-1.));
#233=DIRECTION('',(1.,0.,0.));
#234=DIRECTION('',(0.,0.,-1.));
#235=DIRECTION('',(-1.,0.,0.));
#236=DIRECTION('',(0.,0.,-1.));
#237=DIRECTION('',(1.,0.,0.));
#238=DIRECTION('',(0.,0.,-1.));
#239=DIRECTION('',(-1.,0.,0.));
#240=DIRECTION('',(0.,0.,-1.));
#241=DIRECTION('',(1.,0.,0.));
#242=DIRECTION('',(0.,0.,-1.));
#243=DIRECTION('',(1.,0.,0.));
#244=DIRECTION('',(0.,0.,1.));
#245=DIRECTION('',(-1.,0.,0.));
#246=DIRECTION('',(0.,0.,-1.));
#247=DIRECTION('',(-1.,0.,0.));
#248=DIRECTION('',(0.,0.,1.));
#249=DIRECTION('',(-1.,0.,0.));
#250=DIRECTION('',(0.,0.,-1.));
#251=DIRECTION('',(-1.,0.,0.));
#252=DIRECTION('',(0.,0.,-1.));
#253=DIRECTION('',(1.,0.,0.));
#254=DIRECTION('',(0.,0.,-1.));
#255=DIRECTION('',(-1.,0.,0.));
#256=DIRECTION('',(0.,0.,-1.));
#257=DIRECTION('',(1.,0.,0.));
#258=DIRECTION('',(0.,0.,-1.));
#259=DIRECTION('',(-1.,0.,0.));
#260=DIRECTION('',(0.,0.,1.));
#261=DIRECTION('',(-1.,0.,0.));
#262=DIRECTION('',(0.,0.,-1.));
#263=DIRECTION('',(-1.,0.,0.));
#264=DIRECTION('',(0.,0.,-1.));
#265=DIRECTION('',(1.,0.,-2.76725579418033E-17));
#266=DIRECTION('',(0.,0.,-1.));
#267=DIRECTION('',(1.,0.,0.));
#268=DIRECTION('',(0.,0.,-1.));
#269=DIRECTION('',(1.,0.,0.));
#270=DIRECTION('',(0.,0.,1.));
#271=DIRECTION('',(-1.,0.,0.));
#272=CARTESIAN_POINT('',(0.,0.,0.));
#273=CARTESIAN_POINT('',(0.,-3.5527136788005E-15,36.));
#274=CARTESIAN_POINT('',(0.,0.,0.));
#275=CARTESIAN_POINT('',(0.,-3.5527136788005E-15,-14.));
#276=CARTESIAN_POINT('',(0.,-3.5527136788005E-15,-5.9629837751131));
#277=CARTESIAN_POINT('',(-2.99999999999998,-3.5527136788005E-15,-5.9629837751131));
#278=CARTESIAN_POINT('',(0.,-3.5527136788005E-15,0.));
#279=CARTESIAN_POINT('',(3.,-3.5527136788005E-15,0.));
#280=CARTESIAN_POINT('',(0.,-3.5527136788005E-15,-19.));
#281=CARTESIAN_POINT('',(0.,-3.5527136788005E-15,-9.99999999999999));
#282=CARTESIAN_POINT('',(-0.949999999999999,-3.5527136788005E-15,-9.99999999999999));
#283=CARTESIAN_POINT('',(0.,-3.46944695195361E-15,-9.99999999999999));
#284=CARTESIAN_POINT('',(0.,-3.5527136788005E-15,-12.));
#285=CARTESIAN_POINT('',(-0.949999999999999,-3.5527136788005E-15,-12.));
#286=CARTESIAN_POINT('',(0.,-3.5527136788005E-15,-19.));
#287=CARTESIAN_POINT('',(0.,-3.5527136788005E-15,-12.));
#288=CARTESIAN_POINT('',(0.,0.,0.));
#289=CARTESIAN_POINT('',(0.,-3.5527136788005E-15,-12.));
#290=CARTESIAN_POINT('',(-1.00000000000001,-3.5527136788005E-15,-12.));
#291=CARTESIAN_POINT('',(0.,1.00000000000001,-12.));
#292=CARTESIAN_POINT('',(0.,-3.5527136788005E-15,-13.5));
#293=CARTESIAN_POINT('',(-1.,-3.5527136788005E-15,-13.5));
#294=CARTESIAN_POINT('',(0.,-3.5527136788005E-15,-19.));
#295=CARTESIAN_POINT('',(0.,-3.5527136788005E-15,-14.));
#296=CARTESIAN_POINT('',(-0.5,-3.5527136788005E-15,-14.));
#297=CARTESIAN_POINT('',(-0.5,-3.17671236538253E-15,-14.));
#298=CARTESIAN_POINT('',(-0.5,0.999999999999996,-14.));
#299=CARTESIAN_POINT('',(0.5,0.999999999999996,-14.));
#300=CARTESIAN_POINT('',(0.5,-3.17671236538253E-15,-14.));
#301=CARTESIAN_POINT('',(0.5,-1.,-14.));
#302=CARTESIAN_POINT('',(-0.5,-1.,-14.));
#303=CARTESIAN_POINT('',(-0.5,-3.17671236538253E-15,-14.));
#304=CARTESIAN_POINT('',(-0.792893218813452,-3.17671236538253E-15,-14.));
#305=CARTESIAN_POINT('',(-0.792893218813452,1.5857864376269,-14.));
#306=CARTESIAN_POINT('',(0.792893218813452,1.5857864376269,-14.));
#307=CARTESIAN_POINT('',(0.792893218813452,-3.17671236538253E-15,-14.));
#308=CARTESIAN_POINT('',(0.792893218813452,-1.58578643762691,-14.));
#309=CARTESIAN_POINT('',(-0.792893218813452,-1.58578643762691,-14.));
#310=CARTESIAN_POINT('',(-0.792893218813452,-3.17671236538253E-15,-14.));
#311=CARTESIAN_POINT('',(-0.999999999999998,-3.17671236538253E-15,-13.7928932188135));
#312=CARTESIAN_POINT('',(-0.999999999999998,1.99999999999999,-13.7928932188135));
#313=CARTESIAN_POINT('',(0.999999999999998,1.99999999999999,-13.7928932188135));
#314=CARTESIAN_POINT('',(0.999999999999998,-3.17671236538253E-15,-13.7928932188135));
#315=CARTESIAN_POINT('',(0.999999999999998,-2.,-13.7928932188135));
#316=CARTESIAN_POINT('',(-0.999999999999998,-2.,-13.7928932188135));
#317=CARTESIAN_POINT('',(-0.999999999999998,-3.17671236538253E-15,-13.7928932188135));
#318=CARTESIAN_POINT('',(-0.999999999999996,-3.17671236538253E-15,-13.5));
#319=CARTESIAN_POINT('',(-0.999999999999996,1.99999999999999,-13.5));
#320=CARTESIAN_POINT('',(0.999999999999996,1.99999999999999,-13.5));
#321=CARTESIAN_POINT('',(0.999999999999996,-3.17671236538253E-15,-13.5));
#322=CARTESIAN_POINT('',(0.999999999999996,-1.99999999999999,-13.5));
#323=CARTESIAN_POINT('',(-0.999999999999996,-1.99999999999999,-13.5));
#324=CARTESIAN_POINT('',(-0.999999999999996,-3.17671236538253E-15,-13.5));
#325=CARTESIAN_POINT('',(0.,-3.5527136788005E-15,-14.));
#326=CARTESIAN_POINT('',(0.,-3.5527136788005E-15,36.));
#327=CARTESIAN_POINT('',(-2.5,-3.5527136788005E-15,36.));
#328=CARTESIAN_POINT('',(0.,2.5,36.));
#329=CARTESIAN_POINT('',(0.,-3.5527136788005E-15,35.5));
#330=CARTESIAN_POINT('',(-3.,-3.5527136788005E-15,35.5));
#331=CARTESIAN_POINT('',(0.,-3.5527136788005E-15,35.5));
#332=CARTESIAN_POINT('',(0.,-3.5527136788005E-15,0.));
#333=CARTESIAN_POINT('',(3.,-3.5527136788005E-15,0.));
#334=CARTESIAN_POINT('',(0.,-3.5527136788005E-15,-19.));
#335=CARTESIAN_POINT('',(0.,0.,0.));
#336=MECHANICAL_DESIGN_GEOMETRIC_PRESENTATION_REPRESENTATION('',(#173,#174,
#175,#176,#177,#178),#337);
#337=(
GEOMETRIC_REPRESENTATION_CONTEXT(3)
GLOBAL_UNCERTAINTY_ASSIGNED_CONTEXT((#338))
GLOBAL_UNIT_ASSIGNED_CONTEXT((#344,#340,#339))
REPRESENTATION_CONTEXT('170020R050','TOP_LEVEL_ASSEMBLY_PART')
);
#338=UNCERTAINTY_MEASURE_WITH_UNIT(LENGTH_MEASURE(0.0254),#344,
'DISTANCE_ACCURACY_VALUE','Maximum Tolerance applied to model');
#339=(
NAMED_UNIT(*)
SI_UNIT($,.STERADIAN.)
SOLID_ANGLE_UNIT()
);
#340=(
CONVERSION_BASED_UNIT('DEGREE',#342)
NAMED_UNIT(#341)
PLANE_ANGLE_UNIT()
);
#341=DIMENSIONAL_EXPONENTS(0.,0.,0.,0.,0.,0.,0.);
#342=PLANE_ANGLE_MEASURE_WITH_UNIT(PLANE_ANGLE_MEASURE(0.0174532925),#343);
#343=(
NAMED_UNIT(*)
PLANE_ANGLE_UNIT()
SI_UNIT($,.RADIAN.)
);
#344=(
LENGTH_UNIT()
NAMED_UNIT(*)
SI_UNIT(.MILLI.,.METRE.)
);
ENDSEC;
END-ISO-10303-21;
