ISO-10303-21;
HEADER;
/* Generated by software containing ST-Developer
 * from STEP Tools, Inc. (www.steptools.com) 
 */
/* OPTION: using custom schema-name function */

FILE_DESCRIPTION(
/* description */ (''),
/* implementation_level */ '2;1');

FILE_NAME(
/* name */ '120050-MEGA-64.stp',
/* time_stamp */ '2017-12-13T13:52:08+05:00',
/* author */ (''),
/* organization */ (''),
/* preprocessor_version */ 'ST-DEVELOPER v16',
/* originating_system */ 'SIEMENS PLM Software NX 11.0',
/* authorisation */ '');

FILE_SCHEMA (('AUTOMOTIVE_DESIGN { 1 0 10303 214 3 1 1 1 }'));
ENDSEC;

DATA;
#10=CONSTRUCTIVE_GEOMETRY_REPRESENTATION_RELATIONSHIP(
'supplemental geometry','',#32,#11);
#11=CONSTRUCTIVE_GEOMETRY_REPRESENTATION('supplemental geometry',(#195,
#196,#197),#337);
#12=PROPERTY_DEFINITION_REPRESENTATION(#16,#14);
#13=PROPERTY_DEFINITION_REPRESENTATION(#17,#15);
#14=REPRESENTATION('',(#18),#337);
#15=REPRESENTATION('',(#19),#337);
#16=PROPERTY_DEFINITION('pmi validation property','',#23);
#17=PROPERTY_DEFINITION('pmi validation property','',#23);
#18=VALUE_REPRESENTATION_ITEM('number of annotations',COUNT_MEASURE(0.));
#19=VALUE_REPRESENTATION_ITEM('number of views',COUNT_MEASURE(0.));
#20=SHAPE_REPRESENTATION_RELATIONSHIP('None',
'relationship between 120050-MEGA-64-None and 120050-MEGA-64-None',#32,
#21);
#21=ADVANCED_BREP_SHAPE_REPRESENTATION('120050-MEGA-64-None',(#50,#51,#52),
#337);
#22=SHAPE_DEFINITION_REPRESENTATION(#23,#32);
#23=PRODUCT_DEFINITION_SHAPE('','',#24);
#24=PRODUCT_DEFINITION(' ','',#26,#25);
#25=PRODUCT_DEFINITION_CONTEXT('part definition',#31,'design');
#26=PRODUCT_DEFINITION_FORMATION_WITH_SPECIFIED_SOURCE(' ',' ',#28,
 .NOT_KNOWN.);
#27=PRODUCT_RELATED_PRODUCT_CATEGORY('part','',(#28));
#28=PRODUCT('120050-MEGA-64','120050-MEGA-64',' ',(#29));
#29=PRODUCT_CONTEXT(' ',#31,'mechanical');
#30=APPLICATION_PROTOCOL_DEFINITION('international standard',
'automotive_design',2010,#31);
#31=APPLICATION_CONTEXT(
'core data for automotive mechanical design processes');
#32=SHAPE_REPRESENTATION('120050-MEGA-64-None',(#194),#337);
#33=(
BOUNDED_SURFACE()
B_SPLINE_SURFACE(3,3,((#307,#308,#309,#310,#311,#312,#313),(#314,#315,#316,
#317,#318,#319,#320),(#321,#322,#323,#324,#325,#326,#327),(#328,#329,#330,
#331,#332,#333,#334)),.UNSPECIFIED.,.F.,.T.,.F.)
B_SPLINE_SURFACE_WITH_KNOTS((4,4),(1,3,3,3,1),(0.,1.),(-0.5,0.,0.5,1.,1.5),
 .UNSPECIFIED.)
GEOMETRIC_REPRESENTATION_ITEM()
RATIONAL_B_SPLINE_SURFACE(((1.,0.333333333333333,0.333333333333333,1.,0.333333333333333,
0.333333333333333,1.),(0.984637580380914,0.328212526793638,0.328212526793638,
0.984637580380914,0.328212526793638,0.328212526793638,0.984637580380914),
(0.984637580380914,0.328212526793638,0.328212526793638,0.984637580380914,
0.328212526793638,0.328212526793638,0.984637580380914),(1.,0.333333333333333,
0.333333333333333,1.,0.333333333333333,0.333333333333333,1.)))
REPRESENTATION_ITEM('')
SURFACE()
);
#34=TOROIDAL_SURFACE('',#208,1.99999999999889,0.500000000000004);
#35=SURFACE_STYLE_USAGE(.BOTH.,#38);
#36=SURFACE_STYLE_USAGE(.BOTH.,#39);
#37=SURFACE_STYLE_USAGE(.BOTH.,#40);
#38=SURFACE_SIDE_STYLE('',(#41));
#39=SURFACE_SIDE_STYLE('',(#42));
#40=SURFACE_SIDE_STYLE('',(#43));
#41=SURFACE_STYLE_FILL_AREA(#44);
#42=SURFACE_STYLE_FILL_AREA(#45);
#43=SURFACE_STYLE_FILL_AREA(#46);
#44=FILL_AREA_STYLE('',(#47));
#45=FILL_AREA_STYLE('',(#48));
#46=FILL_AREA_STYLE('',(#49));
#47=FILL_AREA_STYLE_COLOUR('',#189);
#48=FILL_AREA_STYLE_COLOUR('',#190);
#49=FILL_AREA_STYLE_COLOUR('',#189);
#50=MANIFOLD_SOLID_BREP('NOCUT',#53);
#51=MANIFOLD_SOLID_BREP('CUT',#54);
#52=MANIFOLD_SOLID_BREP('NOCUT',#55);
#53=CLOSED_SHELL('',(#75,#76,#77,#78));
#54=CLOSED_SHELL('',(#79,#80,#81,#82));
#55=CLOSED_SHELL('',(#83,#84,#85,#86,#87));
#56=CYLINDRICAL_SURFACE('',#203,2.99999999999961);
#57=CYLINDRICAL_SURFACE('',#210,2.49999999999889);
#58=CYLINDRICAL_SURFACE('',#216,2.29999999999886);
#59=CONICAL_SURFACE('',#201,2.5,44.9999999999992);
#60=CONICAL_SURFACE('',#214,2.99999999999899,19.0000000000003);
#61=FACE_BOUND('',#101,.T.);
#62=FACE_BOUND('',#102,.T.);
#63=FACE_BOUND('',#103,.T.);
#64=FACE_BOUND('',#104,.T.);
#65=FACE_BOUND('',#107,.T.);
#66=FACE_BOUND('',#108,.T.);
#67=FACE_BOUND('',#109,.T.);
#68=FACE_BOUND('',#110,.T.);
#69=FACE_BOUND('',#112,.T.);
#70=FACE_BOUND('',#113,.T.);
#71=FACE_BOUND('',#114,.T.);
#72=FACE_BOUND('',#115,.T.);
#73=FACE_BOUND('',#117,.T.);
#74=FACE_BOUND('',#118,.T.);
#75=ADVANCED_FACE('',(#94),#88,.T.);
#76=ADVANCED_FACE('',(#61,#62),#59,.T.);
#77=ADVANCED_FACE('',(#63,#64),#56,.T.);
#78=ADVANCED_FACE('',(#95),#89,.F.);
#79=ADVANCED_FACE('',(#96),#90,.F.);
#80=ADVANCED_FACE('',(#65,#66),#34,.T.);
#81=ADVANCED_FACE('',(#67,#68),#57,.T.);
#82=ADVANCED_FACE('',(#97),#91,.T.);
#83=ADVANCED_FACE('',(#69,#70),#60,.T.);
#84=ADVANCED_FACE('',(#71,#72),#58,.T.);
#85=ADVANCED_FACE('',(#98),#92,.T.);
#86=ADVANCED_FACE('',(#73,#74),#33,.T.);
#87=ADVANCED_FACE('',(#99),#93,.F.);
#88=PLANE('',#199);
#89=PLANE('',#204);
#90=PLANE('',#206);
#91=PLANE('',#211);
#92=PLANE('',#217);
#93=PLANE('',#219);
#94=FACE_OUTER_BOUND('',#100,.T.);
#95=FACE_OUTER_BOUND('',#105,.T.);
#96=FACE_OUTER_BOUND('',#106,.T.);
#97=FACE_OUTER_BOUND('',#111,.T.);
#98=FACE_OUTER_BOUND('',#116,.T.);
#99=FACE_OUTER_BOUND('',#119,.T.);
#100=EDGE_LOOP('',(#120));
#101=EDGE_LOOP('',(#121));
#102=EDGE_LOOP('',(#122));
#103=EDGE_LOOP('',(#123));
#104=EDGE_LOOP('',(#124));
#105=EDGE_LOOP('',(#125));
#106=EDGE_LOOP('',(#126));
#107=EDGE_LOOP('',(#127));
#108=EDGE_LOOP('',(#128));
#109=EDGE_LOOP('',(#129));
#110=EDGE_LOOP('',(#130));
#111=EDGE_LOOP('',(#131));
#112=EDGE_LOOP('',(#132));
#113=EDGE_LOOP('',(#133));
#114=EDGE_LOOP('',(#134));
#115=EDGE_LOOP('',(#135));
#116=EDGE_LOOP('',(#136));
#117=EDGE_LOOP('',(#137));
#118=EDGE_LOOP('',(#138));
#119=EDGE_LOOP('',(#139));
#120=ORIENTED_EDGE('',*,*,#150,.T.);
#121=ORIENTED_EDGE('',*,*,#151,.T.);
#122=ORIENTED_EDGE('',*,*,#150,.F.);
#123=ORIENTED_EDGE('',*,*,#151,.F.);
#124=ORIENTED_EDGE('',*,*,#152,.F.);
#125=ORIENTED_EDGE('',*,*,#152,.T.);
#126=ORIENTED_EDGE('',*,*,#153,.F.);
#127=ORIENTED_EDGE('',*,*,#154,.F.);
#128=ORIENTED_EDGE('',*,*,#153,.T.);
#129=ORIENTED_EDGE('',*,*,#155,.F.);
#130=ORIENTED_EDGE('',*,*,#154,.T.);
#131=ORIENTED_EDGE('',*,*,#155,.T.);
#132=ORIENTED_EDGE('',*,*,#156,.T.);
#133=ORIENTED_EDGE('',*,*,#157,.F.);
#134=ORIENTED_EDGE('',*,*,#158,.T.);
#135=ORIENTED_EDGE('',*,*,#156,.F.);
#136=ORIENTED_EDGE('',*,*,#157,.T.);
#137=ORIENTED_EDGE('',*,*,#158,.F.);
#138=ORIENTED_EDGE('',*,*,#159,.F.);
#139=ORIENTED_EDGE('',*,*,#159,.T.);
#140=VERTEX_POINT('',#277);
#141=VERTEX_POINT('',#280);
#142=VERTEX_POINT('',#283);
#143=VERTEX_POINT('',#287);
#144=VERTEX_POINT('',#290);
#145=VERTEX_POINT('',#293);
#146=VERTEX_POINT('',#297);
#147=VERTEX_POINT('',#299);
#148=VERTEX_POINT('',#302);
#149=VERTEX_POINT('',#306);
#150=EDGE_CURVE('',#140,#140,#160,.T.);
#151=EDGE_CURVE('',#141,#141,#161,.T.);
#152=EDGE_CURVE('',#142,#142,#162,.T.);
#153=EDGE_CURVE('',#143,#143,#163,.T.);
#154=EDGE_CURVE('',#144,#144,#164,.T.);
#155=EDGE_CURVE('',#145,#145,#165,.T.);
#156=EDGE_CURVE('',#146,#146,#166,.T.);
#157=EDGE_CURVE('',#147,#147,#167,.T.);
#158=EDGE_CURVE('',#148,#148,#168,.T.);
#159=EDGE_CURVE('',#149,#149,#169,.T.);
#160=CIRCLE('',#198,2.5);
#161=CIRCLE('',#200,2.99999999999999);
#162=CIRCLE('',#202,2.99999999999899);
#163=CIRCLE('',#205,1.99999999999889);
#164=CIRCLE('',#207,2.4999999999989);
#165=CIRCLE('',#209,2.49999999999889);
#166=CIRCLE('',#212,2.29999999999892);
#167=CIRCLE('',#213,2.99999999999899);
#168=CIRCLE('',#215,2.29999999999879);
#169=CIRCLE('',#218,2.49999999999889);
#170=PRESENTATION_LAYER_ASSIGNMENT('1','Layer 1',(#195,#196,#197,#50));
#171=PRESENTATION_LAYER_ASSIGNMENT('3','Layer 3',(#51));
#172=PRESENTATION_LAYER_ASSIGNMENT('2','Layer 2',(#52));
#173=STYLED_ITEM('',(#179),#195);
#174=STYLED_ITEM('',(#180),#196);
#175=STYLED_ITEM('',(#181),#197);
#176=STYLED_ITEM('',(#182),#50);
#177=STYLED_ITEM('',(#183),#51);
#178=STYLED_ITEM('',(#184),#52);
#179=PRESENTATION_STYLE_ASSIGNMENT((#185));
#180=PRESENTATION_STYLE_ASSIGNMENT((#186));
#181=PRESENTATION_STYLE_ASSIGNMENT((#187));
#182=PRESENTATION_STYLE_ASSIGNMENT((#35));
#183=PRESENTATION_STYLE_ASSIGNMENT((#36));
#184=PRESENTATION_STYLE_ASSIGNMENT((#37));
#185=CURVE_STYLE('',#191,POSITIVE_LENGTH_MEASURE(0.18),#188);
#186=CURVE_STYLE('',#192,POSITIVE_LENGTH_MEASURE(0.18),#188);
#187=CURVE_STYLE('',#193,POSITIVE_LENGTH_MEASURE(0.18),#188);
#188=COLOUR_RGB('Strong Stone',0.576470588235294,0.54508278019379,0.392156862745098);
#189=COLOUR_RGB('Medium Gray',0.490196078431373,0.490196078431373,0.490196078431373);
#190=COLOUR_RGB('Light Gray',0.8,0.8,0.8);
#191=DRAUGHTING_PRE_DEFINED_CURVE_FONT('continuous');
#192=DRAUGHTING_PRE_DEFINED_CURVE_FONT('continuous');
#193=DRAUGHTING_PRE_DEFINED_CURVE_FONT('continuous');
#194=AXIS2_PLACEMENT_3D('',#272,#220,#221);
#195=AXIS2_PLACEMENT_3D('MCS',#273,#222,#223);
#196=AXIS2_PLACEMENT_3D('PCS',#274,#224,#225);
#197=AXIS2_PLACEMENT_3D('CIP',#275,#226,#227);
#198=AXIS2_PLACEMENT_3D('',#276,#228,#229);
#199=AXIS2_PLACEMENT_3D('',#278,#230,#231);
#200=AXIS2_PLACEMENT_3D('',#279,#232,#233);
#201=AXIS2_PLACEMENT_3D('',#281,#234,#235);
#202=AXIS2_PLACEMENT_3D('',#282,#236,#237);
#203=AXIS2_PLACEMENT_3D('',#284,#238,#239);
#204=AXIS2_PLACEMENT_3D('',#285,#240,#241);
#205=AXIS2_PLACEMENT_3D('',#286,#242,#243);
#206=AXIS2_PLACEMENT_3D('',#288,#244,#245);
#207=AXIS2_PLACEMENT_3D('',#289,#246,#247);
#208=AXIS2_PLACEMENT_3D('',#291,#248,#249);
#209=AXIS2_PLACEMENT_3D('',#292,#250,#251);
#210=AXIS2_PLACEMENT_3D('',#294,#252,#253);
#211=AXIS2_PLACEMENT_3D('',#295,#254,#255);
#212=AXIS2_PLACEMENT_3D('',#296,#256,#257);
#213=AXIS2_PLACEMENT_3D('',#298,#258,#259);
#214=AXIS2_PLACEMENT_3D('',#300,#260,#261);
#215=AXIS2_PLACEMENT_3D('',#301,#262,#263);
#216=AXIS2_PLACEMENT_3D('',#303,#264,#265);
#217=AXIS2_PLACEMENT_3D('',#304,#266,#267);
#218=AXIS2_PLACEMENT_3D('',#305,#268,#269);
#219=AXIS2_PLACEMENT_3D('',#335,#270,#271);
#220=DIRECTION('',(0.,0.,1.));
#221=DIRECTION('',(1.,0.,0.));
#222=DIRECTION('',(0.,0.,1.));
#223=DIRECTION('',(1.,0.,0.));
#224=DIRECTION('',(0.,0.,1.));
#225=DIRECTION('',(1.,0.,0.));
#226=DIRECTION('',(0.,0.,1.));
#227=DIRECTION('',(1.,0.,0.));
#228=DIRECTION('',(0.,-2.56763184569322E-14,1.));
#229=DIRECTION('',(0.,-1.,-2.4980018054066E-14));
#230=DIRECTION('',(0.,-2.56763184569322E-14,1.));
#231=DIRECTION('',(0.,1.,2.56739074444567E-14));
#232=DIRECTION('',(0.,-2.56763184569322E-14,1.));
#233=DIRECTION('',(0.,-1.,-2.54426109809933E-14));
#234=DIRECTION('',(0.,2.56763184569322E-14,-1.));
#235=DIRECTION('',(0.,-1.,-2.57206281764788E-14));
#236=DIRECTION('',(0.,0.,-1.));
#237=DIRECTION('',(1.,0.,0.));
#238=DIRECTION('',(0.,-2.56763184569322E-14,1.));
#239=DIRECTION('',(0.,1.,2.5731731560326E-14));
#240=DIRECTION('',(0.,0.,1.));
#241=DIRECTION('',(-1.,0.,0.));
#242=DIRECTION('',(0.,0.,1.));
#243=DIRECTION('',(1.,0.,0.));
#244=DIRECTION('',(0.,0.,1.));
#245=DIRECTION('',(-1.,0.,0.));
#246=DIRECTION('',(0.,0.,1.));
#247=DIRECTION('',(1.,0.,0.));
#248=DIRECTION('',(0.,0.,1.));
#249=DIRECTION('',(-1.,0.,0.));
#250=DIRECTION('',(0.,0.,1.));
#251=DIRECTION('',(1.,0.,0.));
#252=DIRECTION('',(0.,0.,1.));
#253=DIRECTION('',(-1.,0.,0.));
#254=DIRECTION('',(0.,0.,1.));
#255=DIRECTION('',(1.,0.,0.));
#256=DIRECTION('',(0.,-2.56763184569322E-14,1.));
#257=DIRECTION('',(0.,-1.,-2.56437383405388E-14));
#258=DIRECTION('',(0.,-2.56763184569322E-14,1.));
#259=DIRECTION('',(0.,-1.,-2.56763184569322E-14));
#260=DIRECTION('',(0.,-2.56763184569322E-14,1.));
#261=DIRECTION('',(0.,1.,2.55717767812313E-14));
#262=DIRECTION('',(0.,-2.56763184569322E-14,1.));
#263=DIRECTION('',(0.,-1.,-2.56437383405402E-14));
#264=DIRECTION('',(0.,-2.56763184569322E-14,1.));
#265=DIRECTION('',(0.,1.,2.56437383405394E-14));
#266=DIRECTION('',(0.,0.,1.));
#267=DIRECTION('',(-1.,0.,0.));
#268=DIRECTION('',(0.,0.,-1.));
#269=DIRECTION('',(1.,0.,0.));
#270=DIRECTION('',(0.,0.,1.));
#271=DIRECTION('',(1.,0.,0.));
#272=CARTESIAN_POINT('',(0.,0.,0.));
#273=CARTESIAN_POINT('',(0.,0.,0.));
#274=CARTESIAN_POINT('',(-2.65231963570141E-14,-9.23501491010514E-13,35.9670523856267));
#275=CARTESIAN_POINT('',(-2.65231963570141E-14,1.8494517677524E-13,-14.0329476143732));
#276=CARTESIAN_POINT('',(-2.65231963570141E-14,-9.23501491010514E-13,35.9670523856267));
#277=CARTESIAN_POINT('',(-2.65231963570141E-14,-2.50000000000093,35.9670523856267));
#278=CARTESIAN_POINT('',(-2.65231963570141E-14,-9.23501491010515E-13,35.9670523856268));
#279=CARTESIAN_POINT('',(-2.65231963570141E-14,-9.10663331782048E-13,35.4670523856267));
#280=CARTESIAN_POINT('',(-2.65231963570141E-14,-3.0000000000009,35.4670523856267));
#281=CARTESIAN_POINT('',(-2.65231963570141E-14,-9.23501491010514E-13,35.9670523856267));
#282=CARTESIAN_POINT('',(0.,0.,0.));
#283=CARTESIAN_POINT('',(2.99999999999899,0.,0.));
#284=CARTESIAN_POINT('',(-2.65231963570141E-14,1.8494517677524E-13,-7.20294761437298));
#285=CARTESIAN_POINT('',(-2.65231963570141E-14,0.,0.));
#286=CARTESIAN_POINT('',(-2.65231963570141E-14,1.8494517677524E-13,-14.0329476143732));
#287=CARTESIAN_POINT('',(1.99999999999886,1.8494517677524E-13,-14.0329476143732));
#288=CARTESIAN_POINT('',(-2.65231963570141E-14,1.8494517677524E-13,-14.0329476143732));
#289=CARTESIAN_POINT('',(-2.65231963570141E-14,1.8494517677524E-13,-13.5329476143732));
#290=CARTESIAN_POINT('',(2.49999999999887,1.8494517677524E-13,-13.5329476143732));
#291=CARTESIAN_POINT('',(-2.65231963570141E-14,1.84990279585615E-13,-13.5329476143732));
#292=CARTESIAN_POINT('',(-2.65231963570141E-14,1.8494517677524E-13,-8.03294761437318));
#293=CARTESIAN_POINT('',(2.49999999999886,1.8494517677524E-13,-8.03294761437318));
#294=CARTESIAN_POINT('',(-2.65231963570141E-14,1.8494517677524E-13,-14.0329476143732));
#295=CARTESIAN_POINT('',(-2.65231963570141E-14,1.8494517677524E-13,-8.03294761437318));
#296=CARTESIAN_POINT('',(-2.65231963570141E-14,5.2198610352908E-14,-2.03294761437324));
#297=CARTESIAN_POINT('',(-2.65231963570141E-14,-2.29999999999887,-2.0329476143733));
#298=CARTESIAN_POINT('',(-2.65231963570141E-14,0.,0.));
#299=CARTESIAN_POINT('',(-2.65231963570141E-14,-2.99999999999899,-7.02563007770607E-14));
#300=CARTESIAN_POINT('',(-2.65231963570141E-14,0.,0.));
#301=CARTESIAN_POINT('',(-2.65231963570141E-14,1.84945176775243E-13,-7.20294761437308));
#302=CARTESIAN_POINT('',(-2.65231963570141E-14,-2.29999999999861,-7.20294761437314));
#303=CARTESIAN_POINT('',(-2.65231963570141E-14,1.8494517677524E-13,-7.20294761437298));
#304=CARTESIAN_POINT('',(-2.65231963570141E-14,0.,0.));
#305=CARTESIAN_POINT('',(-2.65231963570141E-14,1.8494517677524E-13,-8.03294761437318));
#306=CARTESIAN_POINT('',(2.49999999999886,1.8494517677524E-13,-8.03294761437318));
#307=CARTESIAN_POINT('',(2.29999999999881,1.83635460550877E-13,-7.202947614373));
#308=CARTESIAN_POINT('',(2.29999999999881,4.59999999999787,-7.202947614373));
#309=CARTESIAN_POINT('',(-2.29999999999887,4.59999999999787,-7.202947614373));
#310=CARTESIAN_POINT('',(-2.29999999999887,1.83635460550877E-13,-7.202947614373));
#311=CARTESIAN_POINT('',(-2.29999999999887,-4.5999999999975,-7.202947614373));
#312=CARTESIAN_POINT('',(2.29999999999881,-4.5999999999975,-7.202947614373));
#313=CARTESIAN_POINT('',(2.29999999999881,1.83635460550877E-13,-7.202947614373));
#314=CARTESIAN_POINT('',(2.42611940869865,1.83635460550877E-13,-7.4630047096954));
#315=CARTESIAN_POINT('',(2.42611940869865,4.85223881739753,-7.4630047096954));
#316=CARTESIAN_POINT('',(-2.4261194086987,4.85223881739753,-7.4630047096954));
#317=CARTESIAN_POINT('',(-2.4261194086987,1.83635460550877E-13,-7.4630047096954));
#318=CARTESIAN_POINT('',(-2.4261194086987,-4.85223881739717,-7.4630047096954));
#319=CARTESIAN_POINT('',(2.42611940869865,-4.85223881739717,-7.4630047096954));
#320=CARTESIAN_POINT('',(2.42611940869865,1.83635460550877E-13,-7.4630047096954));
#321=CARTESIAN_POINT('',(2.49382621574625,1.83635460550877E-13,-7.74398795894301));
#322=CARTESIAN_POINT('',(2.49382621574625,4.98765243149274,-7.743987958943));
#323=CARTESIAN_POINT('',(-2.49382621574631,4.98765243149274,-7.743987958943));
#324=CARTESIAN_POINT('',(-2.49382621574631,1.83635460550877E-13,-7.74398795894301));
#325=CARTESIAN_POINT('',(-2.49382621574631,-4.98765243149237,-7.743987958943));
#326=CARTESIAN_POINT('',(2.49382621574625,-4.98765243149237,-7.743987958943));
#327=CARTESIAN_POINT('',(2.49382621574625,1.83635460550877E-13,-7.74398795894301));
#328=CARTESIAN_POINT('',(2.49999999999882,1.83635460550877E-13,-8.03294761437318));
#329=CARTESIAN_POINT('',(2.49999999999882,4.99999999999788,-8.03294761437318));
#330=CARTESIAN_POINT('',(-2.49999999999888,4.99999999999788,-8.03294761437318));
#331=CARTESIAN_POINT('',(-2.49999999999888,1.83635460550877E-13,-8.03294761437318));
#332=CARTESIAN_POINT('',(-2.49999999999888,-4.99999999999752,-8.03294761437318));
#333=CARTESIAN_POINT('',(2.49999999999882,-4.99999999999752,-8.03294761437318));
#334=CARTESIAN_POINT('',(2.49999999999882,1.83635460550877E-13,-8.03294761437318));
#335=CARTESIAN_POINT('',(-2.65231963570141E-14,1.8494517677524E-13,-8.03294761437318));
#336=MECHANICAL_DESIGN_GEOMETRIC_PRESENTATION_REPRESENTATION('',(#173,#174,
#175,#176,#177,#178),#337);
#337=(
GEOMETRIC_REPRESENTATION_CONTEXT(3)
GLOBAL_UNCERTAINTY_ASSIGNED_CONTEXT((#338))
GLOBAL_UNIT_ASSIGNED_CONTEXT((#344,#340,#339))
REPRESENTATION_CONTEXT('120050-MEGA-64','TOP_LEVEL_ASSEMBLY_PART')
);
#338=UNCERTAINTY_MEASURE_WITH_UNIT(LENGTH_MEASURE(0.0254),#344,
'DISTANCE_ACCURACY_VALUE','Maximum Tolerance applied to model');
#339=(
NAMED_UNIT(*)
SI_UNIT($,.STERADIAN.)
SOLID_ANGLE_UNIT()
);
#340=(
CONVERSION_BASED_UNIT('DEGREE',#342)
NAMED_UNIT(#341)
PLANE_ANGLE_UNIT()
);
#341=DIMENSIONAL_EXPONENTS(0.,0.,0.,0.,0.,0.,0.);
#342=PLANE_ANGLE_MEASURE_WITH_UNIT(PLANE_ANGLE_MEASURE(0.0174532925),#343);
#343=(
NAMED_UNIT(*)
PLANE_ANGLE_UNIT()
SI_UNIT($,.RADIAN.)
);
#344=(
LENGTH_UNIT()
NAMED_UNIT(*)
SI_UNIT(.MILLI.,.METRE.)
);
ENDSEC;
END-ISO-10303-21;
