ISO-10303-21;
HEADER;
/* Generated by software containing ST-Developer
 * from STEP Tools, Inc. (www.steptools.com) 
 */
/* OPTION: using custom schema-name function */

FILE_DESCRIPTION(
/* description */ (''),
/* implementation_level */ '2;1');

FILE_NAME(
/* name */ '120035-MEGA-64.stp',
/* time_stamp */ '2017-12-13T13:52:08+05:00',
/* author */ (''),
/* organization */ (''),
/* preprocessor_version */ 'ST-DEVELOPER v16',
/* originating_system */ 'SIEMENS PLM Software NX 11.0',
/* authorisation */ '');

FILE_SCHEMA (('AUTOMOTIVE_DESIGN { 1 0 10303 214 3 1 1 1 }'));
ENDSEC;

DATA;
#10=CONSTRUCTIVE_GEOMETRY_REPRESENTATION_RELATIONSHIP(
'supplemental geometry','',#32,#11);
#11=CONSTRUCTIVE_GEOMETRY_REPRESENTATION('supplemental geometry',(#206,
#207,#208),#357);
#12=PROPERTY_DEFINITION_REPRESENTATION(#16,#14);
#13=PROPERTY_DEFINITION_REPRESENTATION(#17,#15);
#14=REPRESENTATION('',(#18),#357);
#15=REPRESENTATION('',(#19),#357);
#16=PROPERTY_DEFINITION('pmi validation property','',#23);
#17=PROPERTY_DEFINITION('pmi validation property','',#23);
#18=VALUE_REPRESENTATION_ITEM('number of annotations',COUNT_MEASURE(0.));
#19=VALUE_REPRESENTATION_ITEM('number of views',COUNT_MEASURE(0.));
#20=SHAPE_REPRESENTATION_RELATIONSHIP('None',
'relationship between 120035-MEGA-64-None and 120035-MEGA-64-None',#32,
#21);
#21=ADVANCED_BREP_SHAPE_REPRESENTATION('120035-MEGA-64-None',(#50,#51,#52),
#357);
#22=SHAPE_DEFINITION_REPRESENTATION(#23,#32);
#23=PRODUCT_DEFINITION_SHAPE('','',#24);
#24=PRODUCT_DEFINITION(' ','',#26,#25);
#25=PRODUCT_DEFINITION_CONTEXT('part definition',#31,'design');
#26=PRODUCT_DEFINITION_FORMATION_WITH_SPECIFIED_SOURCE(' ',' ',#28,
 .NOT_KNOWN.);
#27=PRODUCT_RELATED_PRODUCT_CATEGORY('part','',(#28));
#28=PRODUCT('120035-MEGA-64','120035-MEGA-64',' ',(#29));
#29=PRODUCT_CONTEXT(' ',#31,'mechanical');
#30=APPLICATION_PROTOCOL_DEFINITION('international standard',
'automotive_design',2010,#31);
#31=APPLICATION_CONTEXT(
'core data for automotive mechanical design processes');
#32=SHAPE_REPRESENTATION('120035-MEGA-64-None',(#205),#357);
#33=(
BOUNDED_SURFACE()
B_SPLINE_SURFACE(3,3,((#327,#328,#329,#330,#331,#332,#333),(#334,#335,#336,
#337,#338,#339,#340),(#341,#342,#343,#344,#345,#346,#347),(#348,#349,#350,
#351,#352,#353,#354)),.UNSPECIFIED.,.F.,.T.,.F.)
B_SPLINE_SURFACE_WITH_KNOTS((4,4),(1,3,3,3,1),(0.,1.),(-0.5,0.,0.5,1.,1.5),
 .UNSPECIFIED.)
GEOMETRIC_REPRESENTATION_ITEM()
RATIONAL_B_SPLINE_SURFACE(((1.,0.333333333333333,0.333333333333333,1.,0.333333333333333,
0.333333333333333,1.),(0.988937380504075,0.329645793501358,0.329645793501358,
0.988937380504075,0.329645793501358,0.329645793501358,0.988937380504075),
(0.988937380504075,0.329645793501358,0.329645793501358,0.988937380504075,
0.329645793501358,0.329645793501358,0.988937380504075),(1.,0.333333333333333,
0.333333333333333,1.,0.333333333333333,0.333333333333333,1.)))
REPRESENTATION_ITEM('')
SURFACE()
);
#34=TOROIDAL_SURFACE('',#219,1.39999999999998,0.350000000000001);
#35=SURFACE_STYLE_USAGE(.BOTH.,#38);
#36=SURFACE_STYLE_USAGE(.BOTH.,#39);
#37=SURFACE_STYLE_USAGE(.BOTH.,#40);
#38=SURFACE_SIDE_STYLE('',(#41));
#39=SURFACE_SIDE_STYLE('',(#42));
#40=SURFACE_SIDE_STYLE('',(#43));
#41=SURFACE_STYLE_FILL_AREA(#44);
#42=SURFACE_STYLE_FILL_AREA(#45);
#43=SURFACE_STYLE_FILL_AREA(#46);
#44=FILL_AREA_STYLE('',(#47));
#45=FILL_AREA_STYLE('',(#48));
#46=FILL_AREA_STYLE('',(#49));
#47=FILL_AREA_STYLE_COLOUR('',#200);
#48=FILL_AREA_STYLE_COLOUR('',#201);
#49=FILL_AREA_STYLE_COLOUR('',#200);
#50=MANIFOLD_SOLID_BREP('NOCUT',#53);
#51=MANIFOLD_SOLID_BREP('CUT',#54);
#52=MANIFOLD_SOLID_BREP('NOCUT',#55);
#53=CLOSED_SHELL('',(#78,#79,#80,#81));
#54=CLOSED_SHELL('',(#82,#83,#84,#85));
#55=CLOSED_SHELL('',(#86,#87,#88,#89,#90,#91));
#56=CYLINDRICAL_SURFACE('',#214,2.99999999999993);
#57=CYLINDRICAL_SURFACE('',#221,1.74999999999995);
#58=CYLINDRICAL_SURFACE('',#227,1.59999999999995);
#59=CYLINDRICAL_SURFACE('',#230,2.99999999999993);
#60=CONICAL_SURFACE('',#212,2.5,44.9999999999987);
#61=CONICAL_SURFACE('',#225,2.99999999999992,13.9999999999974);
#62=FACE_BOUND('',#105,.T.);
#63=FACE_BOUND('',#106,.T.);
#64=FACE_BOUND('',#107,.T.);
#65=FACE_BOUND('',#108,.T.);
#66=FACE_BOUND('',#111,.T.);
#67=FACE_BOUND('',#112,.T.);
#68=FACE_BOUND('',#113,.T.);
#69=FACE_BOUND('',#114,.T.);
#70=FACE_BOUND('',#116,.T.);
#71=FACE_BOUND('',#117,.T.);
#72=FACE_BOUND('',#118,.T.);
#73=FACE_BOUND('',#119,.T.);
#74=FACE_BOUND('',#121,.T.);
#75=FACE_BOUND('',#122,.T.);
#76=FACE_BOUND('',#123,.T.);
#77=FACE_BOUND('',#124,.T.);
#78=ADVANCED_FACE('',(#98),#92,.T.);
#79=ADVANCED_FACE('',(#62,#63),#60,.T.);
#80=ADVANCED_FACE('',(#64,#65),#56,.T.);
#81=ADVANCED_FACE('',(#99),#93,.F.);
#82=ADVANCED_FACE('',(#100),#94,.F.);
#83=ADVANCED_FACE('',(#66,#67),#34,.T.);
#84=ADVANCED_FACE('',(#68,#69),#57,.T.);
#85=ADVANCED_FACE('',(#101),#95,.T.);
#86=ADVANCED_FACE('',(#70,#71),#61,.T.);
#87=ADVANCED_FACE('',(#72,#73),#58,.T.);
#88=ADVANCED_FACE('',(#102),#96,.T.);
#89=ADVANCED_FACE('',(#74,#75),#59,.T.);
#90=ADVANCED_FACE('',(#76,#77),#33,.T.);
#91=ADVANCED_FACE('',(#103),#97,.F.);
#92=PLANE('',#210);
#93=PLANE('',#215);
#94=PLANE('',#217);
#95=PLANE('',#222);
#96=PLANE('',#229);
#97=PLANE('',#232);
#98=FACE_OUTER_BOUND('',#104,.T.);
#99=FACE_OUTER_BOUND('',#109,.T.);
#100=FACE_OUTER_BOUND('',#110,.T.);
#101=FACE_OUTER_BOUND('',#115,.T.);
#102=FACE_OUTER_BOUND('',#120,.T.);
#103=FACE_OUTER_BOUND('',#125,.T.);
#104=EDGE_LOOP('',(#126));
#105=EDGE_LOOP('',(#127));
#106=EDGE_LOOP('',(#128));
#107=EDGE_LOOP('',(#129));
#108=EDGE_LOOP('',(#130));
#109=EDGE_LOOP('',(#131));
#110=EDGE_LOOP('',(#132));
#111=EDGE_LOOP('',(#133));
#112=EDGE_LOOP('',(#134));
#113=EDGE_LOOP('',(#135));
#114=EDGE_LOOP('',(#136));
#115=EDGE_LOOP('',(#137));
#116=EDGE_LOOP('',(#138));
#117=EDGE_LOOP('',(#139));
#118=EDGE_LOOP('',(#140));
#119=EDGE_LOOP('',(#141));
#120=EDGE_LOOP('',(#142));
#121=EDGE_LOOP('',(#143));
#122=EDGE_LOOP('',(#144));
#123=EDGE_LOOP('',(#145));
#124=EDGE_LOOP('',(#146));
#125=EDGE_LOOP('',(#147));
#126=ORIENTED_EDGE('',*,*,#159,.T.);
#127=ORIENTED_EDGE('',*,*,#160,.T.);
#128=ORIENTED_EDGE('',*,*,#159,.F.);
#129=ORIENTED_EDGE('',*,*,#161,.F.);
#130=ORIENTED_EDGE('',*,*,#160,.F.);
#131=ORIENTED_EDGE('',*,*,#161,.T.);
#132=ORIENTED_EDGE('',*,*,#162,.F.);
#133=ORIENTED_EDGE('',*,*,#163,.F.);
#134=ORIENTED_EDGE('',*,*,#162,.T.);
#135=ORIENTED_EDGE('',*,*,#164,.F.);
#136=ORIENTED_EDGE('',*,*,#163,.T.);
#137=ORIENTED_EDGE('',*,*,#164,.T.);
#138=ORIENTED_EDGE('',*,*,#165,.T.);
#139=ORIENTED_EDGE('',*,*,#166,.F.);
#140=ORIENTED_EDGE('',*,*,#167,.T.);
#141=ORIENTED_EDGE('',*,*,#165,.F.);
#142=ORIENTED_EDGE('',*,*,#168,.T.);
#143=ORIENTED_EDGE('',*,*,#166,.T.);
#144=ORIENTED_EDGE('',*,*,#168,.F.);
#145=ORIENTED_EDGE('',*,*,#167,.F.);
#146=ORIENTED_EDGE('',*,*,#169,.F.);
#147=ORIENTED_EDGE('',*,*,#169,.T.);
#148=VERTEX_POINT('',#294);
#149=VERTEX_POINT('',#297);
#150=VERTEX_POINT('',#300);
#151=VERTEX_POINT('',#304);
#152=VERTEX_POINT('',#307);
#153=VERTEX_POINT('',#310);
#154=VERTEX_POINT('',#314);
#155=VERTEX_POINT('',#316);
#156=VERTEX_POINT('',#319);
#157=VERTEX_POINT('',#322);
#158=VERTEX_POINT('',#326);
#159=EDGE_CURVE('',#148,#148,#170,.T.);
#160=EDGE_CURVE('',#149,#149,#171,.T.);
#161=EDGE_CURVE('',#150,#150,#172,.T.);
#162=EDGE_CURVE('',#151,#151,#173,.T.);
#163=EDGE_CURVE('',#152,#152,#174,.T.);
#164=EDGE_CURVE('',#153,#153,#175,.T.);
#165=EDGE_CURVE('',#154,#154,#176,.T.);
#166=EDGE_CURVE('',#155,#155,#177,.T.);
#167=EDGE_CURVE('',#156,#156,#178,.T.);
#168=EDGE_CURVE('',#157,#157,#179,.T.);
#169=EDGE_CURVE('',#158,#158,#180,.T.);
#170=CIRCLE('',#209,2.5);
#171=CIRCLE('',#211,3.);
#172=CIRCLE('',#213,2.99999999999993);
#173=CIRCLE('',#216,1.39999999999999);
#174=CIRCLE('',#218,1.74999999999998);
#175=CIRCLE('',#220,1.74999999999993);
#176=CIRCLE('',#223,1.6);
#177=CIRCLE('',#224,2.99999999999992);
#178=CIRCLE('',#226,1.59999999999987);
#179=CIRCLE('',#228,2.99999999999993);
#180=CIRCLE('',#231,1.74999999999992);
#181=PRESENTATION_LAYER_ASSIGNMENT('1','Layer 1',(#206,#207,#208,#50));
#182=PRESENTATION_LAYER_ASSIGNMENT('3','Layer 3',(#51));
#183=PRESENTATION_LAYER_ASSIGNMENT('2','Layer 2',(#52));
#184=STYLED_ITEM('',(#190),#206);
#185=STYLED_ITEM('',(#191),#207);
#186=STYLED_ITEM('',(#192),#208);
#187=STYLED_ITEM('',(#193),#50);
#188=STYLED_ITEM('',(#194),#51);
#189=STYLED_ITEM('',(#195),#52);
#190=PRESENTATION_STYLE_ASSIGNMENT((#196));
#191=PRESENTATION_STYLE_ASSIGNMENT((#197));
#192=PRESENTATION_STYLE_ASSIGNMENT((#198));
#193=PRESENTATION_STYLE_ASSIGNMENT((#35));
#194=PRESENTATION_STYLE_ASSIGNMENT((#36));
#195=PRESENTATION_STYLE_ASSIGNMENT((#37));
#196=CURVE_STYLE('',#202,POSITIVE_LENGTH_MEASURE(0.18),#199);
#197=CURVE_STYLE('',#203,POSITIVE_LENGTH_MEASURE(0.18),#199);
#198=CURVE_STYLE('',#204,POSITIVE_LENGTH_MEASURE(0.18),#199);
#199=COLOUR_RGB('Strong Stone',0.576470588235294,0.54508278019379,0.392156862745098);
#200=COLOUR_RGB('Medium Gray',0.490196078431373,0.490196078431373,0.490196078431373);
#201=COLOUR_RGB('Light Gray',0.8,0.8,0.8);
#202=DRAUGHTING_PRE_DEFINED_CURVE_FONT('continuous');
#203=DRAUGHTING_PRE_DEFINED_CURVE_FONT('continuous');
#204=DRAUGHTING_PRE_DEFINED_CURVE_FONT('continuous');
#205=AXIS2_PLACEMENT_3D('',#289,#233,#234);
#206=AXIS2_PLACEMENT_3D('MCS',#290,#235,#236);
#207=AXIS2_PLACEMENT_3D('PCS',#291,#237,#238);
#208=AXIS2_PLACEMENT_3D('CIP',#292,#239,#240);
#209=AXIS2_PLACEMENT_3D('',#293,#241,#242);
#210=AXIS2_PLACEMENT_3D('',#295,#243,#244);
#211=AXIS2_PLACEMENT_3D('',#296,#245,#246);
#212=AXIS2_PLACEMENT_3D('',#298,#247,#248);
#213=AXIS2_PLACEMENT_3D('',#299,#249,#250);
#214=AXIS2_PLACEMENT_3D('',#301,#251,#252);
#215=AXIS2_PLACEMENT_3D('',#302,#253,#254);
#216=AXIS2_PLACEMENT_3D('',#303,#255,#256);
#217=AXIS2_PLACEMENT_3D('',#305,#257,#258);
#218=AXIS2_PLACEMENT_3D('',#306,#259,#260);
#219=AXIS2_PLACEMENT_3D('',#308,#261,#262);
#220=AXIS2_PLACEMENT_3D('',#309,#263,#264);
#221=AXIS2_PLACEMENT_3D('',#311,#265,#266);
#222=AXIS2_PLACEMENT_3D('',#312,#267,#268);
#223=AXIS2_PLACEMENT_3D('',#313,#269,#270);
#224=AXIS2_PLACEMENT_3D('',#315,#271,#272);
#225=AXIS2_PLACEMENT_3D('',#317,#273,#274);
#226=AXIS2_PLACEMENT_3D('',#318,#275,#276);
#227=AXIS2_PLACEMENT_3D('',#320,#277,#278);
#228=AXIS2_PLACEMENT_3D('',#321,#279,#280);
#229=AXIS2_PLACEMENT_3D('',#323,#281,#282);
#230=AXIS2_PLACEMENT_3D('',#324,#283,#284);
#231=AXIS2_PLACEMENT_3D('',#325,#285,#286);
#232=AXIS2_PLACEMENT_3D('',#355,#287,#288);
#233=DIRECTION('',(0.,0.,1.));
#234=DIRECTION('',(1.,0.,0.));
#235=DIRECTION('',(0.,0.,1.));
#236=DIRECTION('',(1.,0.,0.));
#237=DIRECTION('',(0.,0.,1.));
#238=DIRECTION('',(1.,0.,0.));
#239=DIRECTION('',(0.,0.,1.));
#240=DIRECTION('',(1.,0.,0.));
#241=DIRECTION('',(0.,-2.22094179518674E-15,1.));
#242=DIRECTION('',(0.,-1.,-2.77555756156289E-15));
#243=DIRECTION('',(0.,-2.22094179518674E-15,1.));
#244=DIRECTION('',(0.,1.,2.22044604925031E-15));
#245=DIRECTION('',(0.,-2.22094179518674E-15,1.));
#246=DIRECTION('',(0.,-1.,-2.31296463463574E-15));
#247=DIRECTION('',(0.,2.22094179518674E-15,-1.));
#248=DIRECTION('',(0.,-1.,-2.18030082766172E-15));
#249=DIRECTION('',(0.,0.,-1.));
#250=DIRECTION('',(1.,0.,0.));
#251=DIRECTION('',(0.,-2.22094179518674E-15,1.));
#252=DIRECTION('',(0.,1.,2.3129646346358E-15));
#253=DIRECTION('',(0.,0.,1.));
#254=DIRECTION('',(1.,0.,0.));
#255=DIRECTION('',(0.,3.81865577759745E-14,1.));
#256=DIRECTION('',(0.,-1.,3.84117341109153E-14));
#257=DIRECTION('',(0.,3.81865577759745E-14,1.));
#258=DIRECTION('',(0.,1.,-3.81864678766775E-14));
#259=DIRECTION('',(0.,3.81865577759745E-14,1.));
#260=DIRECTION('',(0.,-1.,3.86595517503407E-14));
#261=DIRECTION('',(0.,3.81865577759745E-14,1.));
#262=DIRECTION('',(0.,1.,-3.86595517503407E-14));
#263=DIRECTION('',(0.,3.81865577759745E-14,1.));
#264=DIRECTION('',(0.,-1.,3.86595517503418E-14));
#265=DIRECTION('',(0.,3.81865577759745E-14,1.));
#266=DIRECTION('',(0.,1.,-3.86595517503414E-14));
#267=DIRECTION('',(0.,0.,1.));
#268=DIRECTION('',(1.,0.,0.));
#269=DIRECTION('',(0.,-2.22094179518674E-15,1.));
#270=DIRECTION('',(0.,-1.,-2.16840434497101E-15));
#271=DIRECTION('',(0.,-2.22094179518674E-15,1.));
#272=DIRECTION('',(0.,-1.,-2.22261445359534E-15));
#273=DIRECTION('',(0.,-2.22094179518674E-15,1.));
#274=DIRECTION('',(0.,1.,2.3408949340328E-15));
#275=DIRECTION('',(0.,3.81865577759745E-14,1.));
#276=DIRECTION('',(0.,-1.,3.79470760369957E-14));
#277=DIRECTION('',(0.,-2.22094179518674E-15,1.));
#278=DIRECTION('',(0.,1.,2.16840434497108E-15));
#279=DIRECTION('',(0.,0.,1.));
#280=DIRECTION('',(1.,0.,0.));
#281=DIRECTION('',(0.,0.,1.));
#282=DIRECTION('',(1.,0.,0.));
#283=DIRECTION('',(0.,-2.22094179518674E-15,1.));
#284=DIRECTION('',(0.,1.,2.3129646346358E-15));
#285=DIRECTION('',(0.,0.,-1.));
#286=DIRECTION('',(1.,0.,0.));
#287=DIRECTION('',(0.,0.,1.));
#288=DIRECTION('',(1.,0.,0.));
#289=CARTESIAN_POINT('',(0.,0.,0.));
#290=CARTESIAN_POINT('',(0.,0.,0.));
#291=CARTESIAN_POINT('',(0.,1.23259516440783E-29,36.));
#292=CARTESIAN_POINT('',(0.,-9.94759830064109E-14,-13.9999999999999));
#293=CARTESIAN_POINT('',(0.,1.23259516440783E-29,36.));
#294=CARTESIAN_POINT('',(0.,-2.5,36.));
#295=CARTESIAN_POINT('',(0.,6.16572807200912E-30,36.));
#296=CARTESIAN_POINT('',(0.,1.11047089759342E-15,35.5));
#297=CARTESIAN_POINT('',(0.,-3.,35.5));
#298=CARTESIAN_POINT('',(0.,1.23259516440783E-29,36.));
#299=CARTESIAN_POINT('',(0.,6.66282538556021E-14,0.));
#300=CARTESIAN_POINT('',(2.99999999999993,6.66282538556021E-14,0.));
#301=CARTESIAN_POINT('',(0.,9.9475983006414E-14,-14.79));
#302=CARTESIAN_POINT('',(0.,0.,0.));
#303=CARTESIAN_POINT('',(0.,-9.94759830064109E-14,-13.9999999999999));
#304=CARTESIAN_POINT('',(0.,-1.40000000000009,-13.9999999999999));
#305=CARTESIAN_POINT('',(0.,-9.94759830064125E-14,-14.));
#306=CARTESIAN_POINT('',(0.,-8.61106877848192E-14,-13.6499999999999));
#307=CARTESIAN_POINT('',(0.,-1.75000000000007,-13.6499999999998));
#308=CARTESIAN_POINT('',(0.,-8.60856524953491E-14,-13.6499999999999));
#309=CARTESIAN_POINT('',(0.,7.23635269854736E-14,-9.4999999999999));
#310=CARTESIAN_POINT('',(0.,-1.74999999999986,-9.49999999999983));
#311=CARTESIAN_POINT('',(0.,-9.9475983006414E-14,-14.));
#312=CARTESIAN_POINT('',(0.,7.23635269854736E-14,-9.4999999999999));
#313=CARTESIAN_POINT('',(0.,9.32795553978428E-14,-5.9999999999999));
#314=CARTESIAN_POINT('',(0.,-1.59999999999991,-5.9999999999999));
#315=CARTESIAN_POINT('',(0.,8.08087599885622E-14,-0.38490669304895));
#316=CARTESIAN_POINT('',(0.,-2.99999999999984,-0.384906693048956));
#317=CARTESIAN_POINT('',(0.,8.08087599885622E-14,-0.38490669304895));
#318=CARTESIAN_POINT('',(0.,9.9475983006419E-14,-8.7899999999998));
#319=CARTESIAN_POINT('',(0.,-1.59999999999977,-8.78999999999974));
#320=CARTESIAN_POINT('',(0.,9.9475983006414E-14,-8.79));
#321=CARTESIAN_POINT('',(0.,6.66282538556021E-14,0.));
#322=CARTESIAN_POINT('',(2.99999999999993,6.66282538556021E-14,0.));
#323=CARTESIAN_POINT('',(0.,0.,0.));
#324=CARTESIAN_POINT('',(0.,9.9475983006414E-14,-14.79));
#325=CARTESIAN_POINT('',(3.24509073571994E-30,7.58941520739853E-14,-9.4999999999999));
#326=CARTESIAN_POINT('',(1.74999999999992,7.58941520739853E-14,-9.4999999999999));
#327=CARTESIAN_POINT('',(-1.14950264651645E-43,-1.59999999999974,-8.78999999999977));
#328=CARTESIAN_POINT('',(3.19999999999969,-1.59999999999974,-8.78999999999977));
#329=CARTESIAN_POINT('',(3.19999999999969,1.59999999999994,-8.78999999999987));
#330=CARTESIAN_POINT('',(-1.09476442525376E-43,1.59999999999994,-8.78999999999987));
#331=CARTESIAN_POINT('',(-3.19999999999969,1.59999999999994,-8.78999999999987));
#332=CARTESIAN_POINT('',(-3.19999999999969,-1.59999999999974,-8.78999999999977));
#333=CARTESIAN_POINT('',(-1.14950264651645E-43,-1.59999999999974,-8.78999999999977));
#334=CARTESIAN_POINT('',(9.63750593234336E-31,-1.69313623363538,-9.01617057447372));
#335=CARTESIAN_POINT('',(3.38627246727094,-1.69313623363538,-9.01617057447372));
#336=CARTESIAN_POINT('',(3.38627246727094,1.69313623363556,-9.01617057447382));
#337=CARTESIAN_POINT('',(9.63750593234334E-31,1.69313623363556,-9.01617057447382));
#338=CARTESIAN_POINT('',(-3.38627246727094,1.69313623363556,-9.01617057447382));
#339=CARTESIAN_POINT('',(-3.38627246727094,-1.69313623363538,-9.01617057447372));
#340=CARTESIAN_POINT('',(9.63750593234336E-31,-1.69313623363538,-9.01617057447372));
#341=CARTESIAN_POINT('',(1.98350797628441E-30,-1.74369555213798,-9.25548468205256));
#342=CARTESIAN_POINT('',(3.48739110427612,-1.74369555213798,-9.25548468205256));
#343=CARTESIAN_POINT('',(3.48739110427612,1.74369555213815,-9.25548468205267));
#344=CARTESIAN_POINT('',(1.98350797628442E-30,1.74369555213815,-9.25548468205267));
#345=CARTESIAN_POINT('',(-3.48739110427612,1.74369555213815,-9.25548468205267));
#346=CARTESIAN_POINT('',(-3.48739110427612,-1.74369555213798,-9.25548468205256));
#347=CARTESIAN_POINT('',(1.98350797628441E-30,-1.74369555213798,-9.25548468205256));
#348=CARTESIAN_POINT('',(3.02542858542957E-30,-1.74999999999984,-9.49999999999985));
#349=CARTESIAN_POINT('',(3.49999999999984,-1.74999999999984,-9.49999999999985));
#350=CARTESIAN_POINT('',(3.49999999999984,1.75,-9.49999999999995));
#351=CARTESIAN_POINT('',(3.02542858542957E-30,1.75,-9.49999999999995));
#352=CARTESIAN_POINT('',(-3.49999999999984,1.75,-9.49999999999995));
#353=CARTESIAN_POINT('',(-3.49999999999984,-1.74999999999984,-9.49999999999985));
#354=CARTESIAN_POINT('',(3.02542858542957E-30,-1.74999999999984,-9.49999999999985));
#355=CARTESIAN_POINT('',(0.,7.23635269854736E-14,-9.4999999999999));
#356=MECHANICAL_DESIGN_GEOMETRIC_PRESENTATION_REPRESENTATION('',(#184,#185,
#186,#187,#188,#189),#357);
#357=(
GEOMETRIC_REPRESENTATION_CONTEXT(3)
GLOBAL_UNCERTAINTY_ASSIGNED_CONTEXT((#358))
GLOBAL_UNIT_ASSIGNED_CONTEXT((#364,#360,#359))
REPRESENTATION_CONTEXT('120035-MEGA-64','TOP_LEVEL_ASSEMBLY_PART')
);
#358=UNCERTAINTY_MEASURE_WITH_UNIT(LENGTH_MEASURE(0.0254),#364,
'DISTANCE_ACCURACY_VALUE','Maximum Tolerance applied to model');
#359=(
NAMED_UNIT(*)
SI_UNIT($,.STERADIAN.)
SOLID_ANGLE_UNIT()
);
#360=(
CONVERSION_BASED_UNIT('DEGREE',#362)
NAMED_UNIT(#361)
PLANE_ANGLE_UNIT()
);
#361=DIMENSIONAL_EXPONENTS(0.,0.,0.,0.,0.,0.,0.);
#362=PLANE_ANGLE_MEASURE_WITH_UNIT(PLANE_ANGLE_MEASURE(0.0174532925),#363);
#363=(
NAMED_UNIT(*)
PLANE_ANGLE_UNIT()
SI_UNIT($,.RADIAN.)
);
#364=(
LENGTH_UNIT()
NAMED_UNIT(*)
SI_UNIT(.MILLI.,.METRE.)
);
ENDSEC;
END-ISO-10303-21;
