ISO-10303-21;
HEADER;
/* Generated by software containing ST-Developer
 * from STEP Tools, Inc. (www.steptools.com) 
 */
/* OPTION: using custom schema-name function */

FILE_DESCRIPTION(
/* description */ (''),
/* implementation_level */ '2;1');

FILE_NAME(
/* name */ '120020-MEGA-64.stp',
/* time_stamp */ '2017-12-13T13:52:09+05:00',
/* author */ (''),
/* organization */ (''),
/* preprocessor_version */ 'ST-DEVELOPER v16',
/* originating_system */ 'SIEMENS PLM Software NX 11.0',
/* authorisation */ '');

FILE_SCHEMA (('AUTOMOTIVE_DESIGN { 1 0 10303 214 3 1 1 1 }'));
ENDSEC;

DATA;
#10=CONSTRUCTIVE_GEOMETRY_REPRESENTATION_RELATIONSHIP(
'supplemental geometry','',#32,#11);
#11=CONSTRUCTIVE_GEOMETRY_REPRESENTATION('supplemental geometry',(#206,
#207,#208),#357);
#12=PROPERTY_DEFINITION_REPRESENTATION(#16,#14);
#13=PROPERTY_DEFINITION_REPRESENTATION(#17,#15);
#14=REPRESENTATION('',(#18),#357);
#15=REPRESENTATION('',(#19),#357);
#16=PROPERTY_DEFINITION('pmi validation property','',#23);
#17=PROPERTY_DEFINITION('pmi validation property','',#23);
#18=VALUE_REPRESENTATION_ITEM('number of annotations',COUNT_MEASURE(0.));
#19=VALUE_REPRESENTATION_ITEM('number of views',COUNT_MEASURE(0.));
#20=SHAPE_REPRESENTATION_RELATIONSHIP('None',
'relationship between 120020-MEGA-64-None and 120020-MEGA-64-None',#32,
#21);
#21=ADVANCED_BREP_SHAPE_REPRESENTATION('120020-MEGA-64-None',(#50,#51,#52),
#357);
#22=SHAPE_DEFINITION_REPRESENTATION(#23,#32);
#23=PRODUCT_DEFINITION_SHAPE('','',#24);
#24=PRODUCT_DEFINITION(' ','',#26,#25);
#25=PRODUCT_DEFINITION_CONTEXT('part definition',#31,'design');
#26=PRODUCT_DEFINITION_FORMATION_WITH_SPECIFIED_SOURCE(' ',' ',#28,
 .NOT_KNOWN.);
#27=PRODUCT_RELATED_PRODUCT_CATEGORY('part','',(#28));
#28=PRODUCT('120020-MEGA-64','120020-MEGA-64',' ',(#29));
#29=PRODUCT_CONTEXT(' ',#31,'mechanical');
#30=APPLICATION_PROTOCOL_DEFINITION('international standard',
'automotive_design',2010,#31);
#31=APPLICATION_CONTEXT(
'core data for automotive mechanical design processes');
#32=SHAPE_REPRESENTATION('120020-MEGA-64-None',(#205),#357);
#33=TOROIDAL_SURFACE('',#224,0.799999999999997,0.199999999999999);
#34=(
BOUNDED_SURFACE()
B_SPLINE_SURFACE(3,3,((#311,#312,#313,#314,#315,#316,#317),(#318,#319,#320,
#321,#322,#323,#324),(#325,#326,#327,#328,#329,#330,#331),(#332,#333,#334,
#335,#336,#337,#338)),.UNSPECIFIED.,.F.,.T.,.F.)
B_SPLINE_SURFACE_WITH_KNOTS((4,4),(1,3,3,3,1),(0.,1.),(-0.5,0.,0.5,1.,1.5),
 .UNSPECIFIED.)
GEOMETRIC_REPRESENTATION_ITEM()
RATIONAL_B_SPLINE_SURFACE(((1.,0.333333333333333,0.333333333333333,1.,0.333333333333333,
0.333333333333333,1.),(0.997390727104552,0.332463575701517,0.332463575701517,
0.997390727104552,0.332463575701517,0.332463575701517,0.997390727104552),
(0.997390727104552,0.332463575701517,0.332463575701517,0.997390727104552,
0.332463575701517,0.332463575701517,0.997390727104552),(1.,0.333333333333333,
0.333333333333333,1.,0.333333333333333,0.333333333333333,1.)))
REPRESENTATION_ITEM('')
SURFACE()
);
#35=SURFACE_STYLE_USAGE(.BOTH.,#38);
#36=SURFACE_STYLE_USAGE(.BOTH.,#39);
#37=SURFACE_STYLE_USAGE(.BOTH.,#40);
#38=SURFACE_SIDE_STYLE('',(#41));
#39=SURFACE_SIDE_STYLE('',(#42));
#40=SURFACE_SIDE_STYLE('',(#43));
#41=SURFACE_STYLE_FILL_AREA(#44);
#42=SURFACE_STYLE_FILL_AREA(#45);
#43=SURFACE_STYLE_FILL_AREA(#46);
#44=FILL_AREA_STYLE('',(#47));
#45=FILL_AREA_STYLE('',(#48));
#46=FILL_AREA_STYLE('',(#49));
#47=FILL_AREA_STYLE_COLOUR('',#200);
#48=FILL_AREA_STYLE_COLOUR('',#201);
#49=FILL_AREA_STYLE_COLOUR('',#200);
#50=MANIFOLD_SOLID_BREP('NOCUT',#53);
#51=MANIFOLD_SOLID_BREP('CUT',#54);
#52=MANIFOLD_SOLID_BREP('NOCUT',#55);
#53=CLOSED_SHELL('',(#70,#71,#72,#73,#74));
#54=CLOSED_SHELL('',(#75,#76,#77,#78,#79));
#55=CLOSED_SHELL('',(#80,#81,#82,#83));
#56=CONICAL_SURFACE('',#215,3.,18.0000000000007);
#57=CONICAL_SURFACE('',#229,2.5,45.);
#58=PLANE('',#213);
#59=PLANE('',#217);
#60=PLANE('',#219);
#61=PLANE('',#225);
#62=PLANE('',#227);
#63=PLANE('',#232);
#64=FACE_OUTER_BOUND('',#106,.T.);
#65=FACE_OUTER_BOUND('',#111,.T.);
#66=FACE_OUTER_BOUND('',#112,.T.);
#67=FACE_OUTER_BOUND('',#119,.T.);
#68=FACE_OUTER_BOUND('',#120,.T.);
#69=FACE_OUTER_BOUND('',#125,.T.);
#70=ADVANCED_FACE('',(#88,#89),#84,.T.);
#71=ADVANCED_FACE('',(#64),#58,.T.);
#72=ADVANCED_FACE('',(#90,#91),#56,.T.);
#73=ADVANCED_FACE('',(#92,#93),#85,.T.);
#74=ADVANCED_FACE('',(#65),#59,.T.);
#75=ADVANCED_FACE('',(#66),#60,.T.);
#76=ADVANCED_FACE('',(#94,#95),#34,.T.);
#77=ADVANCED_FACE('',(#96,#97),#86,.T.);
#78=ADVANCED_FACE('',(#98,#99),#33,.T.);
#79=ADVANCED_FACE('',(#67),#61,.T.);
#80=ADVANCED_FACE('',(#68),#62,.T.);
#81=ADVANCED_FACE('',(#100,#101),#57,.T.);
#82=ADVANCED_FACE('',(#102,#103),#87,.T.);
#83=ADVANCED_FACE('',(#69),#63,.F.);
#84=CYLINDRICAL_SURFACE('',#211,3.);
#85=CYLINDRICAL_SURFACE('',#216,0.950000000000102);
#86=CYLINDRICAL_SURFACE('',#222,1.00000000000002);
#87=CYLINDRICAL_SURFACE('',#231,3.);
#88=FACE_BOUND('',#104,.T.);
#89=FACE_BOUND('',#105,.T.);
#90=FACE_BOUND('',#107,.T.);
#91=FACE_BOUND('',#108,.T.);
#92=FACE_BOUND('',#109,.T.);
#93=FACE_BOUND('',#110,.T.);
#94=FACE_BOUND('',#113,.T.);
#95=FACE_BOUND('',#114,.T.);
#96=FACE_BOUND('',#115,.T.);
#97=FACE_BOUND('',#116,.T.);
#98=FACE_BOUND('',#117,.T.);
#99=FACE_BOUND('',#118,.T.);
#100=FACE_BOUND('',#121,.T.);
#101=FACE_BOUND('',#122,.T.);
#102=FACE_BOUND('',#123,.T.);
#103=FACE_BOUND('',#124,.T.);
#104=EDGE_LOOP('',(#126));
#105=EDGE_LOOP('',(#127));
#106=EDGE_LOOP('',(#128));
#107=EDGE_LOOP('',(#129));
#108=EDGE_LOOP('',(#130));
#109=EDGE_LOOP('',(#131));
#110=EDGE_LOOP('',(#132));
#111=EDGE_LOOP('',(#133));
#112=EDGE_LOOP('',(#134));
#113=EDGE_LOOP('',(#135));
#114=EDGE_LOOP('',(#136));
#115=EDGE_LOOP('',(#137));
#116=EDGE_LOOP('',(#138));
#117=EDGE_LOOP('',(#139));
#118=EDGE_LOOP('',(#140));
#119=EDGE_LOOP('',(#141));
#120=EDGE_LOOP('',(#142));
#121=EDGE_LOOP('',(#143));
#122=EDGE_LOOP('',(#144));
#123=EDGE_LOOP('',(#145));
#124=EDGE_LOOP('',(#146));
#125=EDGE_LOOP('',(#147));
#126=ORIENTED_EDGE('',*,*,#159,.T.);
#127=ORIENTED_EDGE('',*,*,#160,.T.);
#128=ORIENTED_EDGE('',*,*,#161,.F.);
#129=ORIENTED_EDGE('',*,*,#162,.T.);
#130=ORIENTED_EDGE('',*,*,#159,.F.);
#131=ORIENTED_EDGE('',*,*,#161,.T.);
#132=ORIENTED_EDGE('',*,*,#162,.F.);
#133=ORIENTED_EDGE('',*,*,#160,.F.);
#134=ORIENTED_EDGE('',*,*,#163,.T.);
#135=ORIENTED_EDGE('',*,*,#164,.T.);
#136=ORIENTED_EDGE('',*,*,#163,.F.);
#137=ORIENTED_EDGE('',*,*,#165,.T.);
#138=ORIENTED_EDGE('',*,*,#164,.F.);
#139=ORIENTED_EDGE('',*,*,#166,.T.);
#140=ORIENTED_EDGE('',*,*,#165,.F.);
#141=ORIENTED_EDGE('',*,*,#166,.F.);
#142=ORIENTED_EDGE('',*,*,#167,.T.);
#143=ORIENTED_EDGE('',*,*,#168,.T.);
#144=ORIENTED_EDGE('',*,*,#167,.F.);
#145=ORIENTED_EDGE('',*,*,#169,.F.);
#146=ORIENTED_EDGE('',*,*,#168,.F.);
#147=ORIENTED_EDGE('',*,*,#169,.T.);
#148=VERTEX_POINT('',#294);
#149=VERTEX_POINT('',#296);
#150=VERTEX_POINT('',#299);
#151=VERTEX_POINT('',#302);
#152=VERTEX_POINT('',#307);
#153=VERTEX_POINT('',#310);
#154=VERTEX_POINT('',#340);
#155=VERTEX_POINT('',#343);
#156=VERTEX_POINT('',#347);
#157=VERTEX_POINT('',#350);
#158=VERTEX_POINT('',#353);
#159=EDGE_CURVE('',#148,#148,#170,.T.);
#160=EDGE_CURVE('',#149,#149,#171,.T.);
#161=EDGE_CURVE('',#150,#150,#172,.T.);
#162=EDGE_CURVE('',#151,#151,#173,.T.);
#163=EDGE_CURVE('',#152,#152,#174,.T.);
#164=EDGE_CURVE('',#153,#153,#175,.T.);
#165=EDGE_CURVE('',#154,#154,#176,.T.);
#166=EDGE_CURVE('',#155,#155,#177,.T.);
#167=EDGE_CURVE('',#156,#156,#178,.T.);
#168=EDGE_CURVE('',#157,#157,#179,.T.);
#169=EDGE_CURVE('',#158,#158,#180,.T.);
#170=CIRCLE('',#209,3.);
#171=CIRCLE('',#210,3.);
#172=CIRCLE('',#212,0.950000000000003);
#173=CIRCLE('',#214,0.950000000000202);
#174=CIRCLE('',#218,0.950000000000003);
#175=CIRCLE('',#220,1.00000000000004);
#176=CIRCLE('',#221,1.);
#177=CIRCLE('',#223,0.799999999999997);
#178=CIRCLE('',#226,2.5);
#179=CIRCLE('',#228,3.);
#180=CIRCLE('',#230,3.);
#181=PRESENTATION_LAYER_ASSIGNMENT('1','Layer 1',(#206,#207,#208,#52));
#182=PRESENTATION_LAYER_ASSIGNMENT('2','Layer 2',(#50));
#183=PRESENTATION_LAYER_ASSIGNMENT('3','Layer 3',(#51));
#184=STYLED_ITEM('',(#190),#206);
#185=STYLED_ITEM('',(#191),#207);
#186=STYLED_ITEM('',(#192),#208);
#187=STYLED_ITEM('',(#193),#50);
#188=STYLED_ITEM('',(#194),#51);
#189=STYLED_ITEM('',(#195),#52);
#190=PRESENTATION_STYLE_ASSIGNMENT((#196));
#191=PRESENTATION_STYLE_ASSIGNMENT((#197));
#192=PRESENTATION_STYLE_ASSIGNMENT((#198));
#193=PRESENTATION_STYLE_ASSIGNMENT((#35));
#194=PRESENTATION_STYLE_ASSIGNMENT((#36));
#195=PRESENTATION_STYLE_ASSIGNMENT((#37));
#196=CURVE_STYLE('',#202,POSITIVE_LENGTH_MEASURE(0.18),#199);
#197=CURVE_STYLE('',#203,POSITIVE_LENGTH_MEASURE(0.18),#199);
#198=CURVE_STYLE('',#204,POSITIVE_LENGTH_MEASURE(0.18),#199);
#199=COLOUR_RGB('Strong Stone',0.576470588235294,0.54508278019379,0.392156862745098);
#200=COLOUR_RGB('Medium Gray',0.490196078431373,0.490196078431373,0.490196078431373);
#201=COLOUR_RGB('Light Gray',0.8,0.8,0.8);
#202=DRAUGHTING_PRE_DEFINED_CURVE_FONT('continuous');
#203=DRAUGHTING_PRE_DEFINED_CURVE_FONT('continuous');
#204=DRAUGHTING_PRE_DEFINED_CURVE_FONT('continuous');
#205=AXIS2_PLACEMENT_3D('',#289,#233,#234);
#206=AXIS2_PLACEMENT_3D('MCS',#290,#235,#236);
#207=AXIS2_PLACEMENT_3D('PCS',#291,#237,#238);
#208=AXIS2_PLACEMENT_3D('CIP',#292,#239,#240);
#209=AXIS2_PLACEMENT_3D('',#293,#241,#242);
#210=AXIS2_PLACEMENT_3D('',#295,#243,#244);
#211=AXIS2_PLACEMENT_3D('',#297,#245,#246);
#212=AXIS2_PLACEMENT_3D('',#298,#247,#248);
#213=AXIS2_PLACEMENT_3D('',#300,#249,#250);
#214=AXIS2_PLACEMENT_3D('',#301,#251,#252);
#215=AXIS2_PLACEMENT_3D('',#303,#253,#254);
#216=AXIS2_PLACEMENT_3D('',#304,#255,#256);
#217=AXIS2_PLACEMENT_3D('',#305,#257,#258);
#218=AXIS2_PLACEMENT_3D('',#306,#259,#260);
#219=AXIS2_PLACEMENT_3D('',#308,#261,#262);
#220=AXIS2_PLACEMENT_3D('',#309,#263,#264);
#221=AXIS2_PLACEMENT_3D('',#339,#265,#266);
#222=AXIS2_PLACEMENT_3D('',#341,#267,#268);
#223=AXIS2_PLACEMENT_3D('',#342,#269,#270);
#224=AXIS2_PLACEMENT_3D('',#344,#271,#272);
#225=AXIS2_PLACEMENT_3D('',#345,#273,#274);
#226=AXIS2_PLACEMENT_3D('',#346,#275,#276);
#227=AXIS2_PLACEMENT_3D('',#348,#277,#278);
#228=AXIS2_PLACEMENT_3D('',#349,#279,#280);
#229=AXIS2_PLACEMENT_3D('',#351,#281,#282);
#230=AXIS2_PLACEMENT_3D('',#352,#283,#284);
#231=AXIS2_PLACEMENT_3D('',#354,#285,#286);
#232=AXIS2_PLACEMENT_3D('',#355,#287,#288);
#233=DIRECTION('',(0.,0.,1.));
#234=DIRECTION('',(1.,0.,0.));
#235=DIRECTION('',(0.,0.,1.));
#236=DIRECTION('',(1.,0.,0.));
#237=DIRECTION('',(0.,0.,1.));
#238=DIRECTION('',(1.,0.,0.));
#239=DIRECTION('',(0.,0.,1.));
#240=DIRECTION('',(1.,0.,0.));
#241=DIRECTION('',(0.,0.,1.));
#242=DIRECTION('',(1.,0.,0.));
#243=DIRECTION('',(0.,0.,-1.));
#244=DIRECTION('',(1.,0.,0.));
#245=DIRECTION('',(0.,0.,1.));
#246=DIRECTION('',(-1.,0.,0.));
#247=DIRECTION('',(0.,0.,1.));
#248=DIRECTION('',(1.,0.,0.));
#249=DIRECTION('',(0.,0.,-1.));
#250=DIRECTION('',(1.,0.,0.));
#251=DIRECTION('',(0.,0.,1.));
#252=DIRECTION('',(1.,0.,0.));
#253=DIRECTION('',(0.,0.,1.));
#254=DIRECTION('',(-1.,0.,7.93512937422631E-17));
#255=DIRECTION('',(0.,0.,1.));
#256=DIRECTION('',(-1.,0.,0.));
#257=DIRECTION('',(0.,0.,1.));
#258=DIRECTION('',(-1.,0.,0.));
#259=DIRECTION('',(0.,0.,1.));
#260=DIRECTION('',(1.,0.,0.));
#261=DIRECTION('',(0.,0.,1.));
#262=DIRECTION('',(-1.,0.,0.));
#263=DIRECTION('',(0.,0.,1.));
#264=DIRECTION('',(1.,0.,0.));
#265=DIRECTION('',(0.,0.,1.));
#266=DIRECTION('',(1.,0.,0.));
#267=DIRECTION('',(0.,0.,1.));
#268=DIRECTION('',(-1.,0.,0.));
#269=DIRECTION('',(0.,0.,1.));
#270=DIRECTION('',(1.,0.,0.));
#271=DIRECTION('',(0.,0.,1.));
#272=DIRECTION('',(-1.,0.,0.));
#273=DIRECTION('',(0.,0.,-1.));
#274=DIRECTION('',(1.,0.,0.));
#275=DIRECTION('',(0.,0.,1.));
#276=DIRECTION('',(1.,0.,0.));
#277=DIRECTION('',(0.,0.,1.));
#278=DIRECTION('',(-1.,0.,0.));
#279=DIRECTION('',(0.,0.,1.));
#280=DIRECTION('',(1.,0.,0.));
#281=DIRECTION('',(0.,0.,-1.));
#282=DIRECTION('',(1.,0.,4.15295395745071E-17));
#283=DIRECTION('',(0.,0.,-1.));
#284=DIRECTION('',(1.,0.,0.));
#285=DIRECTION('',(0.,0.,1.));
#286=DIRECTION('',(-1.,0.,0.));
#287=DIRECTION('',(0.,0.,1.));
#288=DIRECTION('',(-1.,0.,0.));
#289=CARTESIAN_POINT('',(0.,0.,0.));
#290=CARTESIAN_POINT('',(0.,0.,0.));
#291=CARTESIAN_POINT('',(0.,0.,36.0000000000001));
#292=CARTESIAN_POINT('',(0.,0.,-14.));
#293=CARTESIAN_POINT('',(0.,0.,-2.69074874879152));
#294=CARTESIAN_POINT('',(3.,0.,-2.69074874879152));
#295=CARTESIAN_POINT('',(0.,0.,0.));
#296=CARTESIAN_POINT('',(3.,0.,0.));
#297=CARTESIAN_POINT('',(0.,0.,-20.3715953202353));
#298=CARTESIAN_POINT('',(0.,0.,-11.1499999999999));
#299=CARTESIAN_POINT('',(0.950000000000003,0.,-11.1499999999999));
#300=CARTESIAN_POINT('',(0.,0.950000000000003,-11.1499999999999));
#301=CARTESIAN_POINT('',(0.,0.,-8.9999999999999));
#302=CARTESIAN_POINT('',(0.950000000000202,0.,-8.9999999999999));
#303=CARTESIAN_POINT('',(0.,0.,-2.69074874879152));
#304=CARTESIAN_POINT('',(0.,0.,-17.3715953202353));
#305=CARTESIAN_POINT('',(0.,0.,0.));
#306=CARTESIAN_POINT('',(0.,0.,-11.1499999999999));
#307=CARTESIAN_POINT('',(0.950000000000003,0.,-11.1499999999999));
#308=CARTESIAN_POINT('',(0.,0.,-11.1499999999999));
#309=CARTESIAN_POINT('',(0.,0.,-11.5));
#310=CARTESIAN_POINT('',(1.00000000000004,0.,-11.5));
#311=CARTESIAN_POINT('',(0.,-0.950000000000097,-11.1499999999999));
#312=CARTESIAN_POINT('',(1.90000000000019,-0.950000000000097,-11.1499999999999));
#313=CARTESIAN_POINT('',(1.90000000000019,0.950000000000097,-11.1499999999999));
#314=CARTESIAN_POINT('',(0.,0.950000000000097,-11.1499999999999));
#315=CARTESIAN_POINT('',(-1.90000000000019,0.950000000000097,-11.1499999999999));
#316=CARTESIAN_POINT('',(-1.90000000000019,-0.950000000000097,-11.1499999999999));
#317=CARTESIAN_POINT('',(0.,-0.950000000000097,-11.1499999999999));
#318=CARTESIAN_POINT('',(0.,-0.976983816878659,-11.2650370678856));
#319=CARTESIAN_POINT('',(1.95396763375732,-0.976983816878659,-11.2650370678856));
#320=CARTESIAN_POINT('',(1.95396763375732,0.976983816878659,-11.2650370678856));
#321=CARTESIAN_POINT('',(0.,0.976983816878659,-11.2650370678856));
#322=CARTESIAN_POINT('',(-1.95396763375732,0.976983816878659,-11.2650370678856));
#323=CARTESIAN_POINT('',(-1.95396763375732,-0.976983816878659,-11.2650370678856));
#324=CARTESIAN_POINT('',(0.,-0.976983816878659,-11.2650370678856));
#325=CARTESIAN_POINT('',(0.,-0.993694085195499,-11.3820089461037));
#326=CARTESIAN_POINT('',(1.987388170391,-0.993694085195499,-11.3820089461037));
#327=CARTESIAN_POINT('',(1.987388170391,0.993694085195499,-11.3820089461037));
#328=CARTESIAN_POINT('',(0.,0.993694085195499,-11.3820089461037));
#329=CARTESIAN_POINT('',(-1.987388170391,0.993694085195499,-11.3820089461037));
#330=CARTESIAN_POINT('',(-1.987388170391,-0.993694085195499,-11.3820089461037));
#331=CARTESIAN_POINT('',(0.,-0.993694085195499,-11.3820089461037));
#332=CARTESIAN_POINT('',(0.,-1.00000000000003,-11.5));
#333=CARTESIAN_POINT('',(2.00000000000007,-1.00000000000003,-11.5));
#334=CARTESIAN_POINT('',(2.00000000000007,1.00000000000003,-11.5));
#335=CARTESIAN_POINT('',(0.,1.00000000000003,-11.5));
#336=CARTESIAN_POINT('',(-2.00000000000007,1.00000000000003,-11.5));
#337=CARTESIAN_POINT('',(-2.00000000000007,-1.00000000000003,-11.5));
#338=CARTESIAN_POINT('',(0.,-1.00000000000003,-11.5));
#339=CARTESIAN_POINT('',(0.,0.,-13.8));
#340=CARTESIAN_POINT('',(1.,0.,-13.8));
#341=CARTESIAN_POINT('',(0.,0.,-17.3715953202353));
#342=CARTESIAN_POINT('',(0.,0.,-14.));
#343=CARTESIAN_POINT('',(0.799999999999997,0.,-14.));
#344=CARTESIAN_POINT('',(0.,0.,-13.8));
#345=CARTESIAN_POINT('',(0.,0.799999999999997,-14.));
#346=CARTESIAN_POINT('',(0.,0.,36.0000000000001));
#347=CARTESIAN_POINT('',(2.5,0.,36.0000000000001));
#348=CARTESIAN_POINT('',(0.,0.,36.0000000000001));
#349=CARTESIAN_POINT('',(0.,0.,35.5000000000001));
#350=CARTESIAN_POINT('',(3.,0.,35.5000000000001));
#351=CARTESIAN_POINT('',(0.,0.,36.0000000000001));
#352=CARTESIAN_POINT('',(0.,0.,0.));
#353=CARTESIAN_POINT('',(3.,0.,0.));
#354=CARTESIAN_POINT('',(0.,0.,-20.3715953202353));
#355=CARTESIAN_POINT('',(0.,0.,0.));
#356=MECHANICAL_DESIGN_GEOMETRIC_PRESENTATION_REPRESENTATION('',(#184,#185,
#186,#187,#188,#189),#357);
#357=(
GEOMETRIC_REPRESENTATION_CONTEXT(3)
GLOBAL_UNCERTAINTY_ASSIGNED_CONTEXT((#358))
GLOBAL_UNIT_ASSIGNED_CONTEXT((#364,#360,#359))
REPRESENTATION_CONTEXT('120020-MEGA-64','TOP_LEVEL_ASSEMBLY_PART')
);
#358=UNCERTAINTY_MEASURE_WITH_UNIT(LENGTH_MEASURE(0.0254),#364,
'DISTANCE_ACCURACY_VALUE','Maximum Tolerance applied to model');
#359=(
NAMED_UNIT(*)
SI_UNIT($,.STERADIAN.)
SOLID_ANGLE_UNIT()
);
#360=(
CONVERSION_BASED_UNIT('DEGREE',#362)
NAMED_UNIT(#361)
PLANE_ANGLE_UNIT()
);
#361=DIMENSIONAL_EXPONENTS(0.,0.,0.,0.,0.,0.,0.);
#362=PLANE_ANGLE_MEASURE_WITH_UNIT(PLANE_ANGLE_MEASURE(0.0174532925),#363);
#363=(
NAMED_UNIT(*)
PLANE_ANGLE_UNIT()
SI_UNIT($,.RADIAN.)
);
#364=(
LENGTH_UNIT()
NAMED_UNIT(*)
SI_UNIT(.MILLI.,.METRE.)
);
ENDSEC;
END-ISO-10303-21;
