ISO-10303-21;
HEADER;
/* Generated by software containing ST-Developer
 * from STEP Tools, Inc. (www.steptools.com) 
 */
/* OPTION: using custom schema-name function */

FILE_DESCRIPTION(
/* description */ (''),
/* implementation_level */ '2;1');

FILE_NAME(
/* name */ '111VXL120-MEGA-64.stp',
/* time_stamp */ '2017-12-13T13:52:19+05:00',
/* author */ (''),
/* organization */ (''),
/* preprocessor_version */ 'ST-DEVELOPER v16',
/* originating_system */ 'SIEMENS PLM Software NX 11.0',
/* authorisation */ '');

FILE_SCHEMA (('AUTOMOTIVE_DESIGN { 1 0 10303 214 3 1 1 1 }'));
ENDSEC;

DATA;
#10=CONSTRUCTIVE_GEOMETRY_REPRESENTATION_RELATIONSHIP(
'supplemental geometry','',#32,#11);
#11=CONSTRUCTIVE_GEOMETRY_REPRESENTATION('supplemental geometry',(#173,
#174,#175),#273);
#12=PROPERTY_DEFINITION_REPRESENTATION(#16,#14);
#13=PROPERTY_DEFINITION_REPRESENTATION(#17,#15);
#14=REPRESENTATION('',(#18),#273);
#15=REPRESENTATION('',(#19),#273);
#16=PROPERTY_DEFINITION('pmi validation property','',#23);
#17=PROPERTY_DEFINITION('pmi validation property','',#23);
#18=VALUE_REPRESENTATION_ITEM('number of annotations',COUNT_MEASURE(0.));
#19=VALUE_REPRESENTATION_ITEM('number of views',COUNT_MEASURE(0.));
#20=SHAPE_REPRESENTATION_RELATIONSHIP('None',
'relationship between 111VXL120-MEGA-64-None and 111VXL120-MEGA-64-Non
e',#32,#21);
#21=ADVANCED_BREP_SHAPE_REPRESENTATION('111VXL120-MEGA-64-None',(#49,#50,
#51),#273);
#22=SHAPE_DEFINITION_REPRESENTATION(#23,#32);
#23=PRODUCT_DEFINITION_SHAPE('','',#24);
#24=PRODUCT_DEFINITION(' ','',#26,#25);
#25=PRODUCT_DEFINITION_CONTEXT('part definition',#31,'design');
#26=PRODUCT_DEFINITION_FORMATION_WITH_SPECIFIED_SOURCE(' ',' ',#28,
 .NOT_KNOWN.);
#27=PRODUCT_RELATED_PRODUCT_CATEGORY('part','',(#28));
#28=PRODUCT('inpuADC96r60','inpuADC96r60',' ',(#29));
#29=PRODUCT_CONTEXT(' ',#31,'mechanical');
#30=APPLICATION_PROTOCOL_DEFINITION('international standard',
'automotive_design',2010,#31);
#31=APPLICATION_CONTEXT(
'core data for automotive mechanical design processes');
#32=SHAPE_REPRESENTATION('111VXL120-MEGA-64-None',(#172),#273);
#33=SPHERICAL_SURFACE('',#184,6.);
#34=SURFACE_STYLE_USAGE(.BOTH.,#37);
#35=SURFACE_STYLE_USAGE(.BOTH.,#38);
#36=SURFACE_STYLE_USAGE(.BOTH.,#39);
#37=SURFACE_SIDE_STYLE('',(#40));
#38=SURFACE_SIDE_STYLE('',(#41));
#39=SURFACE_SIDE_STYLE('',(#42));
#40=SURFACE_STYLE_FILL_AREA(#43);
#41=SURFACE_STYLE_FILL_AREA(#44);
#42=SURFACE_STYLE_FILL_AREA(#45);
#43=FILL_AREA_STYLE('',(#46));
#44=FILL_AREA_STYLE('',(#47));
#45=FILL_AREA_STYLE('',(#48));
#46=FILL_AREA_STYLE_COLOUR('',#167);
#47=FILL_AREA_STYLE_COLOUR('',#168);
#48=FILL_AREA_STYLE_COLOUR('',#167);
#49=MANIFOLD_SOLID_BREP('NOCUT',#52);
#50=MANIFOLD_SOLID_BREP('CUT',#53);
#51=MANIFOLD_SOLID_BREP('NOCUT',#54);
#52=CLOSED_SHELL('',(#70,#71,#72,#73));
#53=CLOSED_SHELL('',(#74,#75,#76));
#54=CLOSED_SHELL('',(#77,#78,#79,#80));
#55=CYLINDRICAL_SURFACE('',#182,8.00000000000008);
#56=CYLINDRICAL_SURFACE('',#186,5.99999999999995);
#57=CYLINDRICAL_SURFACE('',#193,8.00000000000008);
#58=CONICAL_SURFACE('',#181,7.61547032980462,1.4667000000004);
#59=CONICAL_SURFACE('',#191,7.00000000000011,44.9999999999997);
#60=FACE_BOUND('',#94,.T.);
#61=FACE_BOUND('',#95,.T.);
#62=FACE_BOUND('',#96,.T.);
#63=FACE_BOUND('',#97,.T.);
#64=FACE_BOUND('',#99,.T.);
#65=FACE_BOUND('',#100,.T.);
#66=FACE_BOUND('',#103,.T.);
#67=FACE_BOUND('',#104,.T.);
#68=FACE_BOUND('',#105,.T.);
#69=FACE_BOUND('',#106,.T.);
#70=ADVANCED_FACE('',(#86),#81,.T.);
#71=ADVANCED_FACE('',(#87),#82,.T.);
#72=ADVANCED_FACE('',(#60,#61),#58,.T.);
#73=ADVANCED_FACE('',(#62,#63),#55,.T.);
#74=ADVANCED_FACE('',(#88),#33,.T.);
#75=ADVANCED_FACE('',(#64,#65),#56,.T.);
#76=ADVANCED_FACE('',(#89),#83,.F.);
#77=ADVANCED_FACE('',(#90),#84,.T.);
#78=ADVANCED_FACE('',(#66,#67),#59,.T.);
#79=ADVANCED_FACE('',(#68,#69),#57,.T.);
#80=ADVANCED_FACE('',(#91),#85,.F.);
#81=PLANE('',#177);
#82=PLANE('',#179);
#83=PLANE('',#187);
#84=PLANE('',#189);
#85=PLANE('',#194);
#86=FACE_OUTER_BOUND('',#92,.T.);
#87=FACE_OUTER_BOUND('',#93,.T.);
#88=FACE_OUTER_BOUND('',#98,.T.);
#89=FACE_OUTER_BOUND('',#101,.T.);
#90=FACE_OUTER_BOUND('',#102,.T.);
#91=FACE_OUTER_BOUND('',#107,.T.);
#92=EDGE_LOOP('',(#108));
#93=EDGE_LOOP('',(#109));
#94=EDGE_LOOP('',(#110));
#95=EDGE_LOOP('',(#111));
#96=EDGE_LOOP('',(#112));
#97=EDGE_LOOP('',(#113));
#98=EDGE_LOOP('',(#114));
#99=EDGE_LOOP('',(#115));
#100=EDGE_LOOP('',(#116));
#101=EDGE_LOOP('',(#117));
#102=EDGE_LOOP('',(#118));
#103=EDGE_LOOP('',(#119));
#104=EDGE_LOOP('',(#120));
#105=EDGE_LOOP('',(#121));
#106=EDGE_LOOP('',(#122));
#107=EDGE_LOOP('',(#123));
#108=ORIENTED_EDGE('',*,*,#132,.F.);
#109=ORIENTED_EDGE('',*,*,#133,.F.);
#110=ORIENTED_EDGE('',*,*,#133,.T.);
#111=ORIENTED_EDGE('',*,*,#134,.F.);
#112=ORIENTED_EDGE('',*,*,#134,.T.);
#113=ORIENTED_EDGE('',*,*,#132,.T.);
#114=ORIENTED_EDGE('',*,*,#135,.F.);
#115=ORIENTED_EDGE('',*,*,#136,.F.);
#116=ORIENTED_EDGE('',*,*,#135,.T.);
#117=ORIENTED_EDGE('',*,*,#136,.T.);
#118=ORIENTED_EDGE('',*,*,#137,.T.);
#119=ORIENTED_EDGE('',*,*,#138,.T.);
#120=ORIENTED_EDGE('',*,*,#137,.F.);
#121=ORIENTED_EDGE('',*,*,#139,.F.);
#122=ORIENTED_EDGE('',*,*,#138,.F.);
#123=ORIENTED_EDGE('',*,*,#139,.T.);
#124=VERTEX_POINT('',#246);
#125=VERTEX_POINT('',#249);
#126=VERTEX_POINT('',#252);
#127=VERTEX_POINT('',#256);
#128=VERTEX_POINT('',#259);
#129=VERTEX_POINT('',#263);
#130=VERTEX_POINT('',#266);
#131=VERTEX_POINT('',#269);
#132=EDGE_CURVE('',#124,#124,#140,.T.);
#133=EDGE_CURVE('',#125,#125,#141,.T.);
#134=EDGE_CURVE('',#126,#126,#142,.T.);
#135=EDGE_CURVE('',#127,#127,#143,.T.);
#136=EDGE_CURVE('',#128,#128,#144,.T.);
#137=EDGE_CURVE('',#129,#129,#145,.T.);
#138=EDGE_CURVE('',#130,#130,#146,.T.);
#139=EDGE_CURVE('',#131,#131,#147,.T.);
#140=CIRCLE('',#176,8.00000000000008);
#141=CIRCLE('',#178,5.7007681301156);
#142=CIRCLE('',#180,8.00000000000007);
#143=CIRCLE('',#183,5.99999999999996);
#144=CIRCLE('',#185,5.99999999999994);
#145=CIRCLE('',#188,7.00000000000011);
#146=CIRCLE('',#190,8.0000000000001);
#147=CIRCLE('',#192,8.00000000000008);
#148=PRESENTATION_LAYER_ASSIGNMENT('1','Layer 1',(#173,#174,#175,#51));
#149=PRESENTATION_LAYER_ASSIGNMENT('2','Layer 2',(#49));
#150=PRESENTATION_LAYER_ASSIGNMENT('3','Layer 3',(#50));
#151=STYLED_ITEM('',(#157),#173);
#152=STYLED_ITEM('',(#158),#174);
#153=STYLED_ITEM('',(#159),#175);
#154=STYLED_ITEM('',(#160),#49);
#155=STYLED_ITEM('',(#161),#50);
#156=STYLED_ITEM('',(#162),#51);
#157=PRESENTATION_STYLE_ASSIGNMENT((#163));
#158=PRESENTATION_STYLE_ASSIGNMENT((#164));
#159=PRESENTATION_STYLE_ASSIGNMENT((#165));
#160=PRESENTATION_STYLE_ASSIGNMENT((#34));
#161=PRESENTATION_STYLE_ASSIGNMENT((#35));
#162=PRESENTATION_STYLE_ASSIGNMENT((#36));
#163=CURVE_STYLE('',#169,POSITIVE_LENGTH_MEASURE(0.18),#166);
#164=CURVE_STYLE('',#170,POSITIVE_LENGTH_MEASURE(0.18),#166);
#165=CURVE_STYLE('',#171,POSITIVE_LENGTH_MEASURE(0.18),#166);
#166=COLOUR_RGB('Strong Stone',0.576470588235294,0.54508278019379,0.392156862745098);
#167=COLOUR_RGB('Medium Gray',0.490196078431373,0.490196078431373,0.490196078431373);
#168=COLOUR_RGB('Light Gray',0.8,0.8,0.8);
#169=DRAUGHTING_PRE_DEFINED_CURVE_FONT('continuous');
#170=DRAUGHTING_PRE_DEFINED_CURVE_FONT('continuous');
#171=DRAUGHTING_PRE_DEFINED_CURVE_FONT('continuous');
#172=AXIS2_PLACEMENT_3D('',#241,#195,#196);
#173=AXIS2_PLACEMENT_3D('MCS',#242,#197,#198);
#174=AXIS2_PLACEMENT_3D('PCS',#243,#199,#200);
#175=AXIS2_PLACEMENT_3D('CIP',#244,#201,#202);
#176=AXIS2_PLACEMENT_3D('',#245,#203,#204);
#177=AXIS2_PLACEMENT_3D('',#247,#205,#206);
#178=AXIS2_PLACEMENT_3D('',#248,#207,#208);
#179=AXIS2_PLACEMENT_3D('',#250,#209,#210);
#180=AXIS2_PLACEMENT_3D('',#251,#211,#212);
#181=AXIS2_PLACEMENT_3D('',#253,#213,#214);
#182=AXIS2_PLACEMENT_3D('',#254,#215,#216);
#183=AXIS2_PLACEMENT_3D('',#255,#217,#218);
#184=AXIS2_PLACEMENT_3D('',#257,#219,#220);
#185=AXIS2_PLACEMENT_3D('',#258,#221,#222);
#186=AXIS2_PLACEMENT_3D('',#260,#223,#224);
#187=AXIS2_PLACEMENT_3D('',#261,#225,#226);
#188=AXIS2_PLACEMENT_3D('',#262,#227,#228);
#189=AXIS2_PLACEMENT_3D('',#264,#229,#230);
#190=AXIS2_PLACEMENT_3D('',#265,#231,#232);
#191=AXIS2_PLACEMENT_3D('',#267,#233,#234);
#192=AXIS2_PLACEMENT_3D('',#268,#235,#236);
#193=AXIS2_PLACEMENT_3D('',#270,#237,#238);
#194=AXIS2_PLACEMENT_3D('',#271,#239,#240);
#195=DIRECTION('',(0.,0.,1.));
#196=DIRECTION('',(1.,0.,0.));
#197=DIRECTION('',(0.,0.,1.));
#198=DIRECTION('',(1.,0.,0.));
#199=DIRECTION('',(0.,0.,1.));
#200=DIRECTION('',(1.,0.,0.));
#201=DIRECTION('',(0.,0.,1.));
#202=DIRECTION('',(1.,0.,0.));
#203=DIRECTION('',(0.,0.,-1.));
#204=DIRECTION('',(1.,0.,0.));
#205=DIRECTION('',(0.,0.,1.));
#206=DIRECTION('',(-1.,0.,0.));
#207=DIRECTION('',(0.,-3.87568764960055E-16,1.));
#208=DIRECTION('',(0.,1.,0.));
#209=DIRECTION('',(0.,3.87568764960055E-16,-1.));
#210=DIRECTION('',(0.,-1.,-3.88578058618805E-16));
#211=DIRECTION('',(0.,-3.87568764960055E-16,1.));
#212=DIRECTION('',(0.,-1.,-4.33680868994198E-16));
#213=DIRECTION('',(0.,-3.87568764960055E-16,1.));
#214=DIRECTION('',(0.,1.,-1.25326925515447E-15));
#215=DIRECTION('',(0.,-3.87568764960055E-16,1.));
#216=DIRECTION('',(0.,1.,0.));
#217=DIRECTION('',(0.,5.86197757002083E-15,1.));
#218=DIRECTION('',(0.,-1.,6.93889390390727E-15));
#219=DIRECTION('',(0.,5.86197757002082E-15,1.));
#220=DIRECTION('',(0.,-1.,6.93889390390723E-15));
#221=DIRECTION('',(0.,5.86197757002083E-15,1.));
#222=DIRECTION('',(0.,-1.,6.9388939039073E-15));
#223=DIRECTION('',(0.,5.86197757002083E-15,1.));
#224=DIRECTION('',(0.,1.,-4.62592926927152E-15));
#225=DIRECTION('',(0.,-5.86197757002083E-15,-1.));
#226=DIRECTION('',(0.,-1.,5.8564264548977E-15));
#227=DIRECTION('',(0.,-3.87568764960055E-16,1.));
#228=DIRECTION('',(0.,-1.,0.));
#229=DIRECTION('',(0.,-3.87568764960055E-16,1.));
#230=DIRECTION('',(0.,1.,3.88578058618805E-16));
#231=DIRECTION('',(0.,-3.87568764960055E-16,1.));
#232=DIRECTION('',(0.,-1.,0.));
#233=DIRECTION('',(0.,3.87568764960055E-16,-1.));
#234=DIRECTION('',(0.,-1.,-3.99658238755336E-16));
#235=DIRECTION('',(0.,0.,-1.));
#236=DIRECTION('',(1.,0.,0.));
#237=DIRECTION('',(0.,-3.87568764960055E-16,1.));
#238=DIRECTION('',(0.,1.,0.));
#239=DIRECTION('',(0.,0.,1.));
#240=DIRECTION('',(-1.,0.,0.));
#241=CARTESIAN_POINT('',(0.,0.,0.));
#242=CARTESIAN_POINT('',(0.,0.,0.));
#243=CARTESIAN_POINT('',(0.,0.,48.));
#244=CARTESIAN_POINT('',(-8.99855869597129E-32,-3.55392594598691E-14,-127.));
#245=CARTESIAN_POINT('',(0.,2.51919697224036E-14,0.));
#246=CARTESIAN_POINT('',(8.00000000000008,2.51919697224036E-14,0.));
#247=CARTESIAN_POINT('',(0.,2.66453525910038E-14,0.));
#248=CARTESIAN_POINT('',(0.,6.39372191554603E-14,-117.));
#249=CARTESIAN_POINT('',(0.,5.70076813011566,-117.));
#250=CARTESIAN_POINT('',(0.,5.70000000000005,-117.));
#251=CARTESIAN_POINT('',(0.,2.91341133516937E-14,-27.2014688739079));
#252=CARTESIAN_POINT('',(0.,-8.00000000000004,-27.2014688739079));
#253=CARTESIAN_POINT('',(0.,3.49546775895969E-14,-42.2196147208856));
#254=CARTESIAN_POINT('',(0.,6.39488462184091E-14,-117.));
#255=CARTESIAN_POINT('',(0.,4.0500935938326E-14,-121.));
#256=CARTESIAN_POINT('',(0.,-5.99999999999992,-121.));
#257=CARTESIAN_POINT('',(0.,0.,-121.));
#258=CARTESIAN_POINT('',(0.,6.39488462184092E-14,-117.));
#259=CARTESIAN_POINT('',(0.,-5.99999999999988,-117.));
#260=CARTESIAN_POINT('',(0.,5.3290705182008E-15,-127.));
#261=CARTESIAN_POINT('',(0.,6.00000000000001,-117.));
#262=CARTESIAN_POINT('',(0.,0.,48.));
#263=CARTESIAN_POINT('',(0.,-7.00000000000011,48.));
#264=CARTESIAN_POINT('',(0.,0.,48.));
#265=CARTESIAN_POINT('',(0.,3.87568764960099E-16,47.));
#266=CARTESIAN_POINT('',(0.,-8.0000000000001,47.));
#267=CARTESIAN_POINT('',(0.,0.,48.));
#268=CARTESIAN_POINT('',(0.,2.51919697224036E-14,0.));
#269=CARTESIAN_POINT('',(8.00000000000008,2.51919697224036E-14,0.));
#270=CARTESIAN_POINT('',(0.,6.39488462184091E-14,-117.));
#271=CARTESIAN_POINT('',(0.,2.66453525910038E-14,0.));
#272=MECHANICAL_DESIGN_GEOMETRIC_PRESENTATION_REPRESENTATION('',(#151,#152,
#153,#154,#155,#156),#273);
#273=(
GEOMETRIC_REPRESENTATION_CONTEXT(3)
GLOBAL_UNCERTAINTY_ASSIGNED_CONTEXT((#274))
GLOBAL_UNIT_ASSIGNED_CONTEXT((#280,#276,#275))
REPRESENTATION_CONTEXT('111VXL120-MEGA-64','TOP_LEVEL_ASSEMBLY_PART')
);
#274=UNCERTAINTY_MEASURE_WITH_UNIT(LENGTH_MEASURE(2.E-5),#280,
'DISTANCE_ACCURACY_VALUE','Maximum Tolerance applied to model');
#275=(
NAMED_UNIT(*)
SI_UNIT($,.STERADIAN.)
SOLID_ANGLE_UNIT()
);
#276=(
CONVERSION_BASED_UNIT('DEGREE',#278)
NAMED_UNIT(#277)
PLANE_ANGLE_UNIT()
);
#277=DIMENSIONAL_EXPONENTS(0.,0.,0.,0.,0.,0.,0.);
#278=PLANE_ANGLE_MEASURE_WITH_UNIT(PLANE_ANGLE_MEASURE(0.0174532925),#279);
#279=(
NAMED_UNIT(*)
PLANE_ANGLE_UNIT()
SI_UNIT($,.RADIAN.)
);
#280=(
LENGTH_UNIT()
NAMED_UNIT(*)
SI_UNIT(.MILLI.,.METRE.)
);
ENDSEC;
END-ISO-10303-21;
