ISO-10303-21;
HEADER;
/* Generated by software containing ST-Developer
 * from STEP Tools, Inc. (www.steptools.com) 
 */
/* OPTION: using custom schema-name function */

FILE_DESCRIPTION(
/* description */ (''),
/* implementation_level */ '2;1');

FILE_NAME(
/* name */ '02508357.stp',
/* time_stamp */ '2012-03-01T11:55:46+05:00',
/* author */ (''),
/* organization */ (''),
/* preprocessor_version */ 'ST-DEVELOPER v11',
/* originating_system */ 'SIEMENS PLM Software NX 7.5',
/* authorisation */ '');

FILE_SCHEMA (('AUTOMOTIVE_DESIGN { 1 0 10303 214 1 1 1 1 }'));
ENDSEC;

DATA;
#10=SHAPE_REPRESENTATION_RELATIONSHIP('None',
'relationship between inpuADC96r50-None and inpuADC96r50-None',#22,#11);
#11=ADVANCED_BREP_SHAPE_REPRESENTATION('inpuADC96r50-None',(#39,#40,#41,
#166),#267);
#12=SHAPE_DEFINITION_REPRESENTATION(#13,#22);
#13=PRODUCT_DEFINITION_SHAPE('','',#14);
#14=PRODUCT_DEFINITION(' ','',#16,#15);
#15=PRODUCT_DEFINITION_CONTEXT('part definition',#21,'design');
#16=PRODUCT_DEFINITION_FORMATION_WITH_SPECIFIED_SOURCE(' ',' ',#18,.NOT_KNOWN.);
#17=PRODUCT_RELATED_PRODUCT_CATEGORY('part','',(#18));
#18=PRODUCT('inpuADC96r50','inpuADC96r50',' ',(#19));
#19=PRODUCT_CONTEXT(' ',#21,'mechanical');
#20=APPLICATION_PROTOCOL_DEFINITION('international standard',
'automotive_design',2001,#21);
#21=APPLICATION_CONTEXT(
'core data for automotive mechanical design processes');
#22=SHAPE_REPRESENTATION('inpuADC96r50-None',(#165),#267);
#23=SPHERICAL_SURFACE('',#180,6.);
#24=SURFACE_STYLE_USAGE(.BOTH.,#27);
#25=SURFACE_STYLE_USAGE(.BOTH.,#28);
#26=SURFACE_STYLE_USAGE(.BOTH.,#29);
#27=SURFACE_SIDE_STYLE('',(#30));
#28=SURFACE_SIDE_STYLE('',(#31));
#29=SURFACE_SIDE_STYLE('',(#32));
#30=SURFACE_STYLE_FILL_AREA(#33);
#31=SURFACE_STYLE_FILL_AREA(#34);
#32=SURFACE_STYLE_FILL_AREA(#35);
#33=FILL_AREA_STYLE('',(#36));
#34=FILL_AREA_STYLE('',(#37));
#35=FILL_AREA_STYLE('',(#38));
#36=FILL_AREA_STYLE_COLOUR('',#162);
#37=FILL_AREA_STYLE_COLOUR('',#163);
#38=FILL_AREA_STYLE_COLOUR('',#162);
#39=MANIFOLD_SOLID_BREP('',#42);
#40=MANIFOLD_SOLID_BREP('',#43);
#41=MANIFOLD_SOLID_BREP('',#44);
#42=CLOSED_SHELL('',(#59,#60,#61,#62,#63));
#43=CLOSED_SHELL('',(#64,#65,#66));
#44=CLOSED_SHELL('',(#67,#68,#69,#70));
#45=TOROIDAL_SURFACE('',#174,12.234606380133,5.);
#46=CONICAL_SURFACE('',#173,5.7,1.46670000000047);
#47=CONICAL_SURFACE('',#184,8.,45.);
#48=PLANE('',#171);
#49=PLANE('',#175);
#50=PLANE('',#177);
#51=PLANE('',#182);
#52=PLANE('',#187);
#53=FACE_OUTER_BOUND('',#88,.T.);
#54=FACE_OUTER_BOUND('',#93,.T.);
#55=FACE_OUTER_BOUND('',#94,.T.);
#56=FACE_OUTER_BOUND('',#97,.T.);
#57=FACE_OUTER_BOUND('',#98,.T.);
#58=FACE_OUTER_BOUND('',#103,.T.);
#59=ADVANCED_FACE('',(#74,#75),#71,.T.);
#60=ADVANCED_FACE('',(#53),#48,.F.);
#61=ADVANCED_FACE('',(#76,#77),#46,.T.);
#62=ADVANCED_FACE('',(#78,#79),#45,.F.);
#63=ADVANCED_FACE('',(#54),#49,.T.);
#64=ADVANCED_FACE('',(#55),#50,.T.);
#65=ADVANCED_FACE('',(#80,#81),#72,.T.);
#66=ADVANCED_FACE('',(#56),#23,.T.);
#67=ADVANCED_FACE('',(#57),#51,.F.);
#68=ADVANCED_FACE('',(#82,#83),#47,.T.);
#69=ADVANCED_FACE('',(#84,#85),#73,.T.);
#70=ADVANCED_FACE('',(#58),#52,.F.);
#71=CYLINDRICAL_SURFACE('',#169,8.);
#72=CYLINDRICAL_SURFACE('',#179,5.99999999999999);
#73=CYLINDRICAL_SURFACE('',#186,8.);
#74=FACE_BOUND('',#86,.T.);
#75=FACE_BOUND('',#87,.T.);
#76=FACE_BOUND('',#89,.T.);
#77=FACE_BOUND('',#90,.T.);
#78=FACE_BOUND('',#91,.T.);
#79=FACE_BOUND('',#92,.T.);
#80=FACE_BOUND('',#95,.T.);
#81=FACE_BOUND('',#96,.T.);
#82=FACE_BOUND('',#99,.T.);
#83=FACE_BOUND('',#100,.T.);
#84=FACE_BOUND('',#101,.T.);
#85=FACE_BOUND('',#102,.T.);
#86=EDGE_LOOP('',(#104));
#87=EDGE_LOOP('',(#105));
#88=EDGE_LOOP('',(#106));
#89=EDGE_LOOP('',(#107));
#90=EDGE_LOOP('',(#108));
#91=EDGE_LOOP('',(#109));
#92=EDGE_LOOP('',(#110));
#93=EDGE_LOOP('',(#111));
#94=EDGE_LOOP('',(#112));
#95=EDGE_LOOP('',(#113));
#96=EDGE_LOOP('',(#114));
#97=EDGE_LOOP('',(#115));
#98=EDGE_LOOP('',(#116));
#99=EDGE_LOOP('',(#117));
#100=EDGE_LOOP('',(#118));
#101=EDGE_LOOP('',(#119));
#102=EDGE_LOOP('',(#120));
#103=EDGE_LOOP('',(#121));
#104=ORIENTED_EDGE('',*,*,#131,.T.);
#105=ORIENTED_EDGE('',*,*,#132,.F.);
#106=ORIENTED_EDGE('',*,*,#133,.F.);
#107=ORIENTED_EDGE('',*,*,#134,.F.);
#108=ORIENTED_EDGE('',*,*,#133,.T.);
#109=ORIENTED_EDGE('',*,*,#131,.F.);
#110=ORIENTED_EDGE('',*,*,#134,.T.);
#111=ORIENTED_EDGE('',*,*,#132,.T.);
#112=ORIENTED_EDGE('',*,*,#135,.T.);
#113=ORIENTED_EDGE('',*,*,#136,.T.);
#114=ORIENTED_EDGE('',*,*,#135,.F.);
#115=ORIENTED_EDGE('',*,*,#136,.F.);
#116=ORIENTED_EDGE('',*,*,#137,.T.);
#117=ORIENTED_EDGE('',*,*,#137,.F.);
#118=ORIENTED_EDGE('',*,*,#138,.T.);
#119=ORIENTED_EDGE('',*,*,#139,.T.);
#120=ORIENTED_EDGE('',*,*,#138,.F.);
#121=ORIENTED_EDGE('',*,*,#139,.F.);
#122=VERTEX_POINT('',#237);
#123=VERTEX_POINT('',#239);
#124=VERTEX_POINT('',#242);
#125=VERTEX_POINT('',#245);
#126=VERTEX_POINT('',#250);
#127=VERTEX_POINT('',#253);
#128=VERTEX_POINT('',#257);
#129=VERTEX_POINT('',#260);
#130=VERTEX_POINT('',#263);
#131=EDGE_CURVE('',#122,#122,#140,.T.);
#132=EDGE_CURVE('',#123,#123,#141,.T.);
#133=EDGE_CURVE('',#124,#124,#142,.T.);
#134=EDGE_CURVE('',#125,#125,#143,.T.);
#135=EDGE_CURVE('',#126,#126,#144,.T.);
#136=EDGE_CURVE('',#127,#127,#145,.T.);
#137=EDGE_CURVE('',#128,#128,#146,.T.);
#138=EDGE_CURVE('',#129,#129,#147,.T.);
#139=EDGE_CURVE('',#130,#130,#148,.T.);
#140=CIRCLE('',#167,7.99999999999996);
#141=CIRCLE('',#168,8.);
#142=CIRCLE('',#170,5.7);
#143=CIRCLE('',#172,7.23626023124319);
#144=CIRCLE('',#176,5.99999999999999);
#145=CIRCLE('',#178,5.99999999999999);
#146=CIRCLE('',#181,7.);
#147=CIRCLE('',#183,8.);
#148=CIRCLE('',#185,8.);
#149=PRESENTATION_LAYER_ASSIGNMENT('1','Layer 1',(#166,#41));
#150=PRESENTATION_LAYER_ASSIGNMENT('3','Layer 3',(#39));
#151=PRESENTATION_LAYER_ASSIGNMENT('4','Layer 4',(#40));
#152=STYLED_ITEM('',(#156),#166);
#153=STYLED_ITEM('',(#157),#39);
#154=STYLED_ITEM('',(#158),#40);
#155=STYLED_ITEM('',(#159),#41);
#156=PRESENTATION_STYLE_ASSIGNMENT((#160));
#157=PRESENTATION_STYLE_ASSIGNMENT((#24));
#158=PRESENTATION_STYLE_ASSIGNMENT((#25));
#159=PRESENTATION_STYLE_ASSIGNMENT((#26));
#160=CURVE_STYLE('',#164,POSITIVE_LENGTH_MEASURE(0.176388888888889),#161);
#161=COLOUR_RGB('Deep Blue',0.,0.,0.752941176470588);
#162=COLOUR_RGB('Medium Gray',0.490196078431373,0.490196078431373,0.490196078431373);
#163=COLOUR_RGB('Light Gray',0.8,0.8,0.8);
#164=DRAUGHTING_PRE_DEFINED_CURVE_FONT('continuous');
#165=AXIS2_PLACEMENT_3D('',#234,#188,#189);
#166=AXIS2_PLACEMENT_3D('',#235,#190,#191);
#167=AXIS2_PLACEMENT_3D('',#236,#192,#193);
#168=AXIS2_PLACEMENT_3D('',#238,#194,#195);
#169=AXIS2_PLACEMENT_3D('',#240,#196,#197);
#170=AXIS2_PLACEMENT_3D('',#241,#198,#199);
#171=AXIS2_PLACEMENT_3D('',#243,#200,#201);
#172=AXIS2_PLACEMENT_3D('',#244,#202,#203);
#173=AXIS2_PLACEMENT_3D('',#246,#204,#205);
#174=AXIS2_PLACEMENT_3D('',#247,#206,#207);
#175=AXIS2_PLACEMENT_3D('',#248,#208,#209);
#176=AXIS2_PLACEMENT_3D('',#249,#210,#211);
#177=AXIS2_PLACEMENT_3D('',#251,#212,#213);
#178=AXIS2_PLACEMENT_3D('',#252,#214,#215);
#179=AXIS2_PLACEMENT_3D('',#254,#216,#217);
#180=AXIS2_PLACEMENT_3D('',#255,#218,#219);
#181=AXIS2_PLACEMENT_3D('',#256,#220,#221);
#182=AXIS2_PLACEMENT_3D('',#258,#222,#223);
#183=AXIS2_PLACEMENT_3D('',#259,#224,#225);
#184=AXIS2_PLACEMENT_3D('',#261,#226,#227);
#185=AXIS2_PLACEMENT_3D('',#262,#228,#229);
#186=AXIS2_PLACEMENT_3D('',#264,#230,#231);
#187=AXIS2_PLACEMENT_3D('',#265,#232,#233);
#188=DIRECTION('',(0.,0.,1.));
#189=DIRECTION('',(1.,0.,0.));
#190=DIRECTION('',(0.,0.,1.));
#191=DIRECTION('',(-1.83690953073357E-016,-1.,0.));
#192=DIRECTION('',(0.,9.26794872730566E-017,1.));
#193=DIRECTION('',(0.,-1.,1.08420217248551E-016));
#194=DIRECTION('',(0.,0.,1.));
#195=DIRECTION('',(1.,0.,0.));
#196=DIRECTION('',(0.,9.26794872730566E-017,1.));
#197=DIRECTION('',(0.,-1.,0.));
#198=DIRECTION('',(0.,9.26794872730566E-017,1.));
#199=DIRECTION('',(0.,-1.,0.));
#200=DIRECTION('',(0.,9.26794872730566E-017,1.));
#201=DIRECTION('',(0.,-1.,9.71445146547012E-017));
#202=DIRECTION('',(0.,9.26794872730566E-017,1.));
#203=DIRECTION('',(0.,-1.,0.));
#204=DIRECTION('',(0.,9.26794872730566E-017,1.));
#205=DIRECTION('',(0.,-1.,0.));
#206=DIRECTION('',(0.,9.26794872730566E-017,1.));
#207=DIRECTION('',(0.,-1.,1.00653501316774E-016));
#208=DIRECTION('',(0.,0.,1.));
#209=DIRECTION('',(1.,0.,0.));
#210=DIRECTION('',(0.,0.,1.));
#211=DIRECTION('',(1.,0.,0.));
#212=DIRECTION('',(0.,0.,1.));
#213=DIRECTION('',(1.,0.,0.));
#214=DIRECTION('',(0.,0.,1.));
#215=DIRECTION('',(1.,0.,0.));
#216=DIRECTION('',(0.,0.,1.));
#217=DIRECTION('',(1.,0.,0.));
#218=DIRECTION('',(0.,6.12323399573678E-017,1.));
#219=DIRECTION('',(0.,1.,0.));
#220=DIRECTION('',(0.,9.26794872730566E-017,1.));
#221=DIRECTION('',(0.,-1.,0.));
#222=DIRECTION('',(0.,-9.26794872730566E-017,-1.));
#223=DIRECTION('',(0.,1.,-9.0205620750794E-017));
#224=DIRECTION('',(0.,9.26794872730566E-017,1.));
#225=DIRECTION('',(0.,-1.,0.));
#226=DIRECTION('',(0.,-9.26794872730566E-017,-1.));
#227=DIRECTION('',(0.,1.,-8.26058798084195E-017));
#228=DIRECTION('',(0.,0.,1.));
#229=DIRECTION('',(1.,0.,0.));
#230=DIRECTION('',(0.,9.26794872730566E-017,1.));
#231=DIRECTION('',(0.,-1.,0.));
#232=DIRECTION('',(0.,0.,1.));
#233=DIRECTION('',(1.,0.,0.));
#234=CARTESIAN_POINT('',(0.,0.,0.));
#235=CARTESIAN_POINT('',(0.,0.,0.));
#236=CARTESIAN_POINT('',(0.,-4.86289269721728E-015,-5.47000000000002));
#237=CARTESIAN_POINT('',(0.,-7.99999999999997,-5.47000000000002));
#238=CARTESIAN_POINT('',(0.,-4.35593590183366E-015,0.));
#239=CARTESIAN_POINT('',(8.,-4.35593590183366E-015,0.));
#240=CARTESIAN_POINT('',(0.,-1.06581410364015E-014,-67.9999999999999));
#241=CARTESIAN_POINT('',(0.,-1.06581410364015E-014,-67.9999999999999));
#242=CARTESIAN_POINT('',(0.,-5.70000000000001,-67.9999999999999));
#243=CARTESIAN_POINT('',(0.,-1.06581410364015E-014,-67.9999999999999));
#244=CARTESIAN_POINT('',(0.,-5.09737180001811E-015,-7.99999999999999));
#245=CARTESIAN_POINT('',(0.,-7.2362602312432,-7.99999999999999));
#246=CARTESIAN_POINT('',(0.,-1.06581410364015E-014,-67.9999999999999));
#247=CARTESIAN_POINT('',(0.,-5.20417042793042E-015,-8.12859150779812));
#248=CARTESIAN_POINT('',(0.,0.,0.));
#249=CARTESIAN_POINT('',(0.,-1.06581410364015E-014,-67.9999999999999));
#250=CARTESIAN_POINT('',(5.99999999999999,-1.06581410364015E-014,-67.9999999999999));
#251=CARTESIAN_POINT('',(0.,-1.06581410364015E-014,-67.9999999999999));
#252=CARTESIAN_POINT('',(0.,-1.06581410364015E-014,-71.9999999999999));
#253=CARTESIAN_POINT('',(5.99999999999999,-1.06581410364015E-014,-71.9999999999999));
#254=CARTESIAN_POINT('',(0.,-1.06581410364015E-014,-77.9999999999999));
#255=CARTESIAN_POINT('',(0.,-1.06581410364015E-014,-71.9999999999999));
#256=CARTESIAN_POINT('',(0.,7.70371977754894E-030,47.0000000000001));
#257=CARTESIAN_POINT('',(0.,-7.,47.0000000000001));
#258=CARTESIAN_POINT('',(0.,7.,47.0000000000001));
#259=CARTESIAN_POINT('',(0.,-9.26794872730492E-017,46.0000000000001));
#260=CARTESIAN_POINT('',(0.,-8.,46.0000000000001));
#261=CARTESIAN_POINT('',(0.,-9.26794872730492E-017,46.0000000000001));
#262=CARTESIAN_POINT('',(0.,-4.35593590183366E-015,0.));
#263=CARTESIAN_POINT('',(8.,-4.35593590183366E-015,0.));
#264=CARTESIAN_POINT('',(0.,-1.06581410364015E-014,-67.9999999999999));
#265=CARTESIAN_POINT('',(0.,0.,0.));
#266=MECHANICAL_DESIGN_GEOMETRIC_PRESENTATION_REPRESENTATION('',(#152,#153,
#154,#155),#267);
#267=(
GEOMETRIC_REPRESENTATION_CONTEXT(3)
GLOBAL_UNCERTAINTY_ASSIGNED_CONTEXT((#268))
GLOBAL_UNIT_ASSIGNED_CONTEXT((#274,#270,#269))
REPRESENTATION_CONTEXT('02508357','TOP_LEVEL_ASSEMBLY_PART')
);
#268=UNCERTAINTY_MEASURE_WITH_UNIT(LENGTH_MEASURE(2.E-005),#274,
'DISTANCE_ACCURACY_VALUE','Maximum Tolerance applied to model');
#269=(
NAMED_UNIT(*)
SI_UNIT($,.STERADIAN.)
SOLID_ANGLE_UNIT()
);
#270=(
CONVERSION_BASED_UNIT('DEGREE',#272)
NAMED_UNIT(#271)
PLANE_ANGLE_UNIT()
);
#271=DIMENSIONAL_EXPONENTS(0.,0.,0.,0.,0.,0.,0.);
#272=PLANE_ANGLE_MEASURE_WITH_UNIT(PLANE_ANGLE_MEASURE(0.0174532925),#273);
#273=(
NAMED_UNIT(*)
PLANE_ANGLE_UNIT()
SI_UNIT($,.RADIAN.)
);
#274=(
LENGTH_UNIT()
NAMED_UNIT(*)
SI_UNIT(.MILLI.,.METRE.)
);
ENDSEC;
END-ISO-10303-21;
