ISO-10303-21;
HEADER;
/* Generated by software containing ST-Developer
 * from STEP Tools, Inc. (www.steptools.com) 
 */
/* OPTION: using custom schema-name function */

FILE_DESCRIPTION(
/* description */ (''),
/* implementation_level */ '2;1');

FILE_NAME(
/* name */ '02508354.stp',
/* time_stamp */ '2012-03-01T11:53:40+05:00',
/* author */ (''),
/* organization */ (''),
/* preprocessor_version */ 'ST-DEVELOPER v11',
/* originating_system */ 'SIEMENS PLM Software NX 7.5',
/* authorisation */ '');

FILE_SCHEMA (('AUTOMOTIVE_DESIGN { 1 0 10303 214 1 1 1 1 }'));
ENDSEC;

DATA;
#10=SHAPE_REPRESENTATION_RELATIONSHIP('None',
'relationship between inpuADC96r49-None and inpuADC96r49-None',#22,#11);
#11=ADVANCED_BREP_SHAPE_REPRESENTATION('inpuADC96r49-None',(#39,#40,#41,
#155),#247);
#12=SHAPE_DEFINITION_REPRESENTATION(#13,#22);
#13=PRODUCT_DEFINITION_SHAPE('','',#14);
#14=PRODUCT_DEFINITION(' ','',#16,#15);
#15=PRODUCT_DEFINITION_CONTEXT('part definition',#21,'design');
#16=PRODUCT_DEFINITION_FORMATION_WITH_SPECIFIED_SOURCE(' ',' ',#18,.NOT_KNOWN.);
#17=PRODUCT_RELATED_PRODUCT_CATEGORY('part','',(#18));
#18=PRODUCT('inpuADC96r49','inpuADC96r49',' ',(#19));
#19=PRODUCT_CONTEXT(' ',#21,'mechanical');
#20=APPLICATION_PROTOCOL_DEFINITION('international standard',
'automotive_design',2001,#21);
#21=APPLICATION_CONTEXT(
'core data for automotive mechanical design processes');
#22=SHAPE_REPRESENTATION('inpuADC96r49-None',(#154),#247);
#23=SPHERICAL_SURFACE('',#164,3.);
#24=SURFACE_STYLE_USAGE(.BOTH.,#27);
#25=SURFACE_STYLE_USAGE(.BOTH.,#28);
#26=SURFACE_STYLE_USAGE(.BOTH.,#29);
#27=SURFACE_SIDE_STYLE('',(#30));
#28=SURFACE_SIDE_STYLE('',(#31));
#29=SURFACE_SIDE_STYLE('',(#32));
#30=SURFACE_STYLE_FILL_AREA(#33);
#31=SURFACE_STYLE_FILL_AREA(#34);
#32=SURFACE_STYLE_FILL_AREA(#35);
#33=FILL_AREA_STYLE('',(#36));
#34=FILL_AREA_STYLE('',(#37));
#35=FILL_AREA_STYLE('',(#38));
#36=FILL_AREA_STYLE_COLOUR('',#151);
#37=FILL_AREA_STYLE_COLOUR('',#152);
#38=FILL_AREA_STYLE_COLOUR('',#151);
#39=MANIFOLD_SOLID_BREP('',#42);
#40=MANIFOLD_SOLID_BREP('',#43);
#41=MANIFOLD_SOLID_BREP('',#44);
#42=CLOSED_SHELL('',(#58,#59,#60,#61));
#43=CLOSED_SHELL('',(#62,#63,#64));
#44=CLOSED_SHELL('',(#65,#66,#67,#68));
#45=CONICAL_SURFACE('',#161,2.80000000000004,1.46670000000002);
#46=CONICAL_SURFACE('',#171,3.99999999999999,44.9999999999973);
#47=PLANE('',#160);
#48=PLANE('',#162);
#49=PLANE('',#167);
#50=PLANE('',#169);
#51=PLANE('',#174);
#52=FACE_OUTER_BOUND('',#84,.T.);
#53=FACE_OUTER_BOUND('',#87,.T.);
#54=FACE_OUTER_BOUND('',#88,.T.);
#55=FACE_OUTER_BOUND('',#91,.T.);
#56=FACE_OUTER_BOUND('',#92,.T.);
#57=FACE_OUTER_BOUND('',#97,.T.);
#58=ADVANCED_FACE('',(#72,#73),#69,.T.);
#59=ADVANCED_FACE('',(#52),#47,.F.);
#60=ADVANCED_FACE('',(#74,#75),#45,.T.);
#61=ADVANCED_FACE('',(#53),#48,.T.);
#62=ADVANCED_FACE('',(#54),#23,.T.);
#63=ADVANCED_FACE('',(#76,#77),#70,.T.);
#64=ADVANCED_FACE('',(#55),#49,.F.);
#65=ADVANCED_FACE('',(#56),#50,.F.);
#66=ADVANCED_FACE('',(#78,#79),#46,.T.);
#67=ADVANCED_FACE('',(#80,#81),#71,.T.);
#68=ADVANCED_FACE('',(#57),#51,.F.);
#69=CYLINDRICAL_SURFACE('',#158,3.99999999999997);
#70=CYLINDRICAL_SURFACE('',#166,3.00000000000004);
#71=CYLINDRICAL_SURFACE('',#173,3.99999999999997);
#72=FACE_BOUND('',#82,.T.);
#73=FACE_BOUND('',#83,.T.);
#74=FACE_BOUND('',#85,.T.);
#75=FACE_BOUND('',#86,.T.);
#76=FACE_BOUND('',#89,.T.);
#77=FACE_BOUND('',#90,.T.);
#78=FACE_BOUND('',#93,.T.);
#79=FACE_BOUND('',#94,.T.);
#80=FACE_BOUND('',#95,.T.);
#81=FACE_BOUND('',#96,.T.);
#82=EDGE_LOOP('',(#98));
#83=EDGE_LOOP('',(#99));
#84=EDGE_LOOP('',(#100));
#85=EDGE_LOOP('',(#101));
#86=EDGE_LOOP('',(#102));
#87=EDGE_LOOP('',(#103));
#88=EDGE_LOOP('',(#104));
#89=EDGE_LOOP('',(#105));
#90=EDGE_LOOP('',(#106));
#91=EDGE_LOOP('',(#107));
#92=EDGE_LOOP('',(#108));
#93=EDGE_LOOP('',(#109));
#94=EDGE_LOOP('',(#110));
#95=EDGE_LOOP('',(#111));
#96=EDGE_LOOP('',(#112));
#97=EDGE_LOOP('',(#113));
#98=ORIENTED_EDGE('',*,*,#122,.T.);
#99=ORIENTED_EDGE('',*,*,#123,.F.);
#100=ORIENTED_EDGE('',*,*,#124,.F.);
#101=ORIENTED_EDGE('',*,*,#122,.F.);
#102=ORIENTED_EDGE('',*,*,#124,.T.);
#103=ORIENTED_EDGE('',*,*,#123,.T.);
#104=ORIENTED_EDGE('',*,*,#125,.F.);
#105=ORIENTED_EDGE('',*,*,#126,.F.);
#106=ORIENTED_EDGE('',*,*,#125,.T.);
#107=ORIENTED_EDGE('',*,*,#126,.T.);
#108=ORIENTED_EDGE('',*,*,#127,.T.);
#109=ORIENTED_EDGE('',*,*,#127,.F.);
#110=ORIENTED_EDGE('',*,*,#128,.T.);
#111=ORIENTED_EDGE('',*,*,#129,.T.);
#112=ORIENTED_EDGE('',*,*,#128,.F.);
#113=ORIENTED_EDGE('',*,*,#129,.F.);
#114=VERTEX_POINT('',#220);
#115=VERTEX_POINT('',#222);
#116=VERTEX_POINT('',#225);
#117=VERTEX_POINT('',#230);
#118=VERTEX_POINT('',#233);
#119=VERTEX_POINT('',#237);
#120=VERTEX_POINT('',#240);
#121=VERTEX_POINT('',#243);
#122=EDGE_CURVE('',#114,#114,#130,.T.);
#123=EDGE_CURVE('',#115,#115,#131,.T.);
#124=EDGE_CURVE('',#116,#116,#132,.T.);
#125=EDGE_CURVE('',#117,#117,#133,.T.);
#126=EDGE_CURVE('',#118,#118,#134,.T.);
#127=EDGE_CURVE('',#119,#119,#135,.T.);
#128=EDGE_CURVE('',#120,#120,#136,.T.);
#129=EDGE_CURVE('',#121,#121,#137,.T.);
#130=CIRCLE('',#156,3.99999999999994);
#131=CIRCLE('',#157,3.99999999999997);
#132=CIRCLE('',#159,2.80000000000004);
#133=CIRCLE('',#163,3.00000000000002);
#134=CIRCLE('',#165,3.00000000000005);
#135=CIRCLE('',#168,3.20000000000006);
#136=CIRCLE('',#170,3.99999999999999);
#137=CIRCLE('',#172,3.99999999999997);
#138=PRESENTATION_LAYER_ASSIGNMENT('1','Layer 1',(#155,#41));
#139=PRESENTATION_LAYER_ASSIGNMENT('3','Layer 3',(#39));
#140=PRESENTATION_LAYER_ASSIGNMENT('4','Layer 4',(#40));
#141=STYLED_ITEM('',(#145),#155);
#142=STYLED_ITEM('',(#146),#39);
#143=STYLED_ITEM('',(#147),#40);
#144=STYLED_ITEM('',(#148),#41);
#145=PRESENTATION_STYLE_ASSIGNMENT((#149));
#146=PRESENTATION_STYLE_ASSIGNMENT((#24));
#147=PRESENTATION_STYLE_ASSIGNMENT((#25));
#148=PRESENTATION_STYLE_ASSIGNMENT((#26));
#149=CURVE_STYLE('',#153,POSITIVE_LENGTH_MEASURE(0.176388888888889),#150);
#150=COLOUR_RGB('Deep Blue',0.,0.,0.752941176470588);
#151=COLOUR_RGB('Medium Gray',0.490196078431373,0.490196078431373,0.490196078431373);
#152=COLOUR_RGB('Light Gray',0.8,0.8,0.8);
#153=DRAUGHTING_PRE_DEFINED_CURVE_FONT('continuous');
#154=AXIS2_PLACEMENT_3D('',#217,#175,#176);
#155=AXIS2_PLACEMENT_3D('',#218,#177,#178);
#156=AXIS2_PLACEMENT_3D('',#219,#179,#180);
#157=AXIS2_PLACEMENT_3D('',#221,#181,#182);
#158=AXIS2_PLACEMENT_3D('',#223,#183,#184);
#159=AXIS2_PLACEMENT_3D('',#224,#185,#186);
#160=AXIS2_PLACEMENT_3D('',#226,#187,#188);
#161=AXIS2_PLACEMENT_3D('',#227,#189,#190);
#162=AXIS2_PLACEMENT_3D('',#228,#191,#192);
#163=AXIS2_PLACEMENT_3D('',#229,#193,#194);
#164=AXIS2_PLACEMENT_3D('',#231,#195,#196);
#165=AXIS2_PLACEMENT_3D('',#232,#197,#198);
#166=AXIS2_PLACEMENT_3D('',#234,#199,#200);
#167=AXIS2_PLACEMENT_3D('',#235,#201,#202);
#168=AXIS2_PLACEMENT_3D('',#236,#203,#204);
#169=AXIS2_PLACEMENT_3D('',#238,#205,#206);
#170=AXIS2_PLACEMENT_3D('',#239,#207,#208);
#171=AXIS2_PLACEMENT_3D('',#241,#209,#210);
#172=AXIS2_PLACEMENT_3D('',#242,#211,#212);
#173=AXIS2_PLACEMENT_3D('',#244,#213,#214);
#174=AXIS2_PLACEMENT_3D('',#245,#215,#216);
#175=DIRECTION('',(0.,0.,1.));
#176=DIRECTION('',(1.,0.,0.));
#177=DIRECTION('',(0.,0.,1.));
#178=DIRECTION('',(-1.83690953073357E-016,-1.,0.));
#179=DIRECTION('',(0.,6.23614635108599E-016,1.));
#180=DIRECTION('',(0.,-1.,6.50521303491313E-016));
#181=DIRECTION('',(0.,0.,1.));
#182=DIRECTION('',(1.,0.,0.));
#183=DIRECTION('',(0.,6.23614635108599E-016,1.));
#184=DIRECTION('',(0.,-1.,0.));
#185=DIRECTION('',(0.,6.23614635108599E-016,1.));
#186=DIRECTION('',(0.,-1.,0.));
#187=DIRECTION('',(0.,6.23614635108599E-016,1.));
#188=DIRECTION('',(0.,-1.,6.24500451351651E-016));
#189=DIRECTION('',(0.,6.23614635108599E-016,1.));
#190=DIRECTION('',(0.,-1.,-1.71002959889286E-015));
#191=DIRECTION('',(0.,0.,1.));
#192=DIRECTION('',(1.,0.,0.));
#193=DIRECTION('',(0.,-8.73375446038471E-015,1.));
#194=DIRECTION('',(0.,-1.,-9.2518585385429E-015));
#195=DIRECTION('',(0.,-8.79498680034208E-015,1.));
#196=DIRECTION('',(0.,-1.,-9.25185853854297E-015));
#197=DIRECTION('',(0.,-8.73375446038471E-015,1.));
#198=DIRECTION('',(0.,-1.,-9.25185853854282E-015));
#199=DIRECTION('',(0.,-8.73375446038471E-015,1.));
#200=DIRECTION('',(0.,-1.,-9.25185853854286E-015));
#201=DIRECTION('',(0.,8.73375446038471E-015,-1.));
#202=DIRECTION('',(0.,1.,8.7360674250192E-015));
#203=DIRECTION('',(0.,6.23614635108599E-016,1.));
#204=DIRECTION('',(0.,-1.,0.));
#205=DIRECTION('',(0.,-6.23614635108599E-016,-1.));
#206=DIRECTION('',(0.,1.,-6.24500451351651E-016));
#207=DIRECTION('',(0.,6.23614635108599E-016,1.));
#208=DIRECTION('',(0.,-1.,0.));
#209=DIRECTION('',(0.,-6.23614635108599E-016,-1.));
#210=DIRECTION('',(0.,1.,-6.42746148469555E-016));
#211=DIRECTION('',(0.,0.,1.));
#212=DIRECTION('',(1.,0.,0.));
#213=DIRECTION('',(0.,6.23614635108599E-016,1.));
#214=DIRECTION('',(0.,-1.,0.));
#215=DIRECTION('',(0.,0.,1.));
#216=DIRECTION('',(1.,0.,0.));
#217=CARTESIAN_POINT('',(0.,0.,0.));
#218=CARTESIAN_POINT('',(0.,0.,0.));
#219=CARTESIAN_POINT('',(0.,-3.63561718427035E-015,-7.13294028203077));
#220=CARTESIAN_POINT('',(0.,-3.99999999999994,-7.13294028203077));
#221=CARTESIAN_POINT('',(0.,8.12588766959693E-016,0.));
#222=CARTESIAN_POINT('',(3.99999999999997,8.12588766959693E-016,0.));
#223=CARTESIAN_POINT('',(0.,-3.28626015289046E-014,-54.));
#224=CARTESIAN_POINT('',(0.,-3.28626015289046E-014,-54.));
#225=CARTESIAN_POINT('',(0.,-2.80000000000007,-54.));
#226=CARTESIAN_POINT('',(0.,2.1316282072803E-014,-54.));
#227=CARTESIAN_POINT('',(0.,-3.28626015289046E-014,-54.));
#228=CARTESIAN_POINT('',(0.,0.,0.));
#229=CARTESIAN_POINT('',(0.,-6.66133814775111E-015,-56.9999999999999));
#230=CARTESIAN_POINT('',(0.,-3.00000000000003,-57.));
#231=CARTESIAN_POINT('',(0.,2.39808173319034E-014,-56.9999999999999));
#232=CARTESIAN_POINT('',(0.,-3.28626015289044E-014,-54.));
#233=CARTESIAN_POINT('',(0.,-3.00000000000008,-54.0000000000001));
#234=CARTESIAN_POINT('',(0.,1.95399252334028E-014,-59.9999999999999));
#235=CARTESIAN_POINT('',(0.,3.00000000000002,-54.));
#236=CARTESIAN_POINT('',(0.,2.57571741713036E-014,40.));
#237=CARTESIAN_POINT('',(0.,-3.20000000000003,40.));
#238=CARTESIAN_POINT('',(0.,3.20000000000008,40.));
#239=CARTESIAN_POINT('',(0.,2.52582824632167E-014,39.2));
#240=CARTESIAN_POINT('',(0.,-3.99999999999997,39.2));
#241=CARTESIAN_POINT('',(0.,2.52582824632167E-014,39.2));
#242=CARTESIAN_POINT('',(0.,8.12588766959693E-016,0.));
#243=CARTESIAN_POINT('',(3.99999999999997,8.12588766959693E-016,0.));
#244=CARTESIAN_POINT('',(0.,-3.28626015289046E-014,-54.));
#245=CARTESIAN_POINT('',(0.,0.,0.));
#246=MECHANICAL_DESIGN_GEOMETRIC_PRESENTATION_REPRESENTATION('',(#141,#142,
#143,#144),#247);
#247=(
GEOMETRIC_REPRESENTATION_CONTEXT(3)
GLOBAL_UNCERTAINTY_ASSIGNED_CONTEXT((#248))
GLOBAL_UNIT_ASSIGNED_CONTEXT((#254,#250,#249))
REPRESENTATION_CONTEXT('02508354','TOP_LEVEL_ASSEMBLY_PART')
);
#248=UNCERTAINTY_MEASURE_WITH_UNIT(LENGTH_MEASURE(2.E-005),#254,
'DISTANCE_ACCURACY_VALUE','Maximum Tolerance applied to model');
#249=(
NAMED_UNIT(*)
SI_UNIT($,.STERADIAN.)
SOLID_ANGLE_UNIT()
);
#250=(
CONVERSION_BASED_UNIT('DEGREE',#252)
NAMED_UNIT(#251)
PLANE_ANGLE_UNIT()
);
#251=DIMENSIONAL_EXPONENTS(0.,0.,0.,0.,0.,0.,0.);
#252=PLANE_ANGLE_MEASURE_WITH_UNIT(PLANE_ANGLE_MEASURE(0.0174532925),#253);
#253=(
NAMED_UNIT(*)
PLANE_ANGLE_UNIT()
SI_UNIT($,.RADIAN.)
);
#254=(
LENGTH_UNIT()
NAMED_UNIT(*)
SI_UNIT(.MILLI.,.METRE.)
);
ENDSEC;
END-ISO-10303-21;
