ISO-10303-21;
HEADER;
/* Generated by software containing ST-Developer
 * from STEP Tools, Inc. (www.steptools.com) 
 */
/* OPTION: using custom schema-name function */

FILE_DESCRIPTION(
/* description */ (''),
/* implementation_level */ '2;1');

FILE_NAME(
/* name */ '111VL040-MEGA-64.stp',
/* time_stamp */ '2017-12-13T13:52:21+05:00',
/* author */ (''),
/* organization */ (''),
/* preprocessor_version */ 'ST-DEVELOPER v16',
/* originating_system */ 'SIEMENS PLM Software NX 11.0',
/* authorisation */ '');

FILE_SCHEMA (('AUTOMOTIVE_DESIGN { 1 0 10303 214 3 1 1 1 }'));
ENDSEC;

DATA;
#10=CONSTRUCTIVE_GEOMETRY_REPRESENTATION_RELATIONSHIP(
'supplemental geometry','',#32,#11);
#11=CONSTRUCTIVE_GEOMETRY_REPRESENTATION('supplemental geometry',(#162,
#163,#164),#253);
#12=PROPERTY_DEFINITION_REPRESENTATION(#16,#14);
#13=PROPERTY_DEFINITION_REPRESENTATION(#17,#15);
#14=REPRESENTATION('',(#18),#253);
#15=REPRESENTATION('',(#19),#253);
#16=PROPERTY_DEFINITION('pmi validation property','',#23);
#17=PROPERTY_DEFINITION('pmi validation property','',#23);
#18=VALUE_REPRESENTATION_ITEM('number of annotations',COUNT_MEASURE(0.));
#19=VALUE_REPRESENTATION_ITEM('number of views',COUNT_MEASURE(0.));
#20=SHAPE_REPRESENTATION_RELATIONSHIP('None',
'relationship between 111VL040-MEGA-64-None and 111VL040-MEGA-64-None',
#32,#21);
#21=ADVANCED_BREP_SHAPE_REPRESENTATION('111VL040-MEGA-64-None',(#50,#51,
#52),#253);
#22=SHAPE_DEFINITION_REPRESENTATION(#23,#32);
#23=PRODUCT_DEFINITION_SHAPE('','',#24);
#24=PRODUCT_DEFINITION(' ','',#26,#25);
#25=PRODUCT_DEFINITION_CONTEXT('part definition',#31,'design');
#26=PRODUCT_DEFINITION_FORMATION_WITH_SPECIFIED_SOURCE(' ',' ',#28,
 .NOT_KNOWN.);
#27=PRODUCT_RELATED_PRODUCT_CATEGORY('part','',(#28));
#28=PRODUCT('inpuADC96r3m','inpuADC96r3m',' ',(#29));
#29=PRODUCT_CONTEXT(' ',#31,'mechanical');
#30=APPLICATION_PROTOCOL_DEFINITION('international standard',
'automotive_design',2010,#31);
#31=APPLICATION_CONTEXT(
'core data for automotive mechanical design processes');
#32=SHAPE_REPRESENTATION('111VL040-MEGA-64-None',(#161),#253);
#33=CONICAL_SURFACE('',#173,2.99999999999995,1.46670000000063);
#34=CONICAL_SURFACE('',#178,2.5,45.0000000000065);
#35=SURFACE_STYLE_USAGE(.BOTH.,#38);
#36=SURFACE_STYLE_USAGE(.BOTH.,#39);
#37=SURFACE_STYLE_USAGE(.BOTH.,#40);
#38=SURFACE_SIDE_STYLE('',(#41));
#39=SURFACE_SIDE_STYLE('',(#42));
#40=SURFACE_SIDE_STYLE('',(#43));
#41=SURFACE_STYLE_FILL_AREA(#44);
#42=SURFACE_STYLE_FILL_AREA(#45);
#43=SURFACE_STYLE_FILL_AREA(#46);
#44=FILL_AREA_STYLE('',(#47));
#45=FILL_AREA_STYLE('',(#48));
#46=FILL_AREA_STYLE('',(#49));
#47=FILL_AREA_STYLE_COLOUR('',#156);
#48=FILL_AREA_STYLE_COLOUR('',#157);
#49=FILL_AREA_STYLE_COLOUR('',#157);
#50=MANIFOLD_SOLID_BREP('CUT',#53);
#51=MANIFOLD_SOLID_BREP('NOCUT',#54);
#52=MANIFOLD_SOLID_BREP('NOCUT',#55);
#53=CLOSED_SHELL('',(#71,#72,#73));
#54=CLOSED_SHELL('',(#74,#75,#76));
#55=CLOSED_SHELL('',(#77,#78,#79,#80));
#56=PLANE('',#169);
#57=PLANE('',#171);
#58=PLANE('',#174);
#59=PLANE('',#176);
#60=PLANE('',#181);
#61=CYLINDRICAL_SURFACE('',#168,2.00000000000093);
#62=CYLINDRICAL_SURFACE('',#180,2.99999999999995);
#63=FACE_BOUND('',#89,.T.);
#64=FACE_BOUND('',#90,.T.);
#65=FACE_BOUND('',#93,.T.);
#66=FACE_BOUND('',#94,.T.);
#67=FACE_BOUND('',#97,.T.);
#68=FACE_BOUND('',#98,.T.);
#69=FACE_BOUND('',#99,.T.);
#70=FACE_BOUND('',#100,.T.);
#71=ADVANCED_FACE('',(#82),#81,.T.);
#72=ADVANCED_FACE('',(#63,#64),#61,.T.);
#73=ADVANCED_FACE('',(#83),#56,.F.);
#74=ADVANCED_FACE('',(#84),#57,.T.);
#75=ADVANCED_FACE('',(#65,#66),#33,.T.);
#76=ADVANCED_FACE('',(#85),#58,.T.);
#77=ADVANCED_FACE('',(#86),#59,.T.);
#78=ADVANCED_FACE('',(#67,#68),#34,.T.);
#79=ADVANCED_FACE('',(#69,#70),#62,.T.);
#80=ADVANCED_FACE('',(#87),#60,.F.);
#81=SPHERICAL_SURFACE('',#166,2.);
#82=FACE_OUTER_BOUND('',#88,.T.);
#83=FACE_OUTER_BOUND('',#91,.T.);
#84=FACE_OUTER_BOUND('',#92,.T.);
#85=FACE_OUTER_BOUND('',#95,.T.);
#86=FACE_OUTER_BOUND('',#96,.T.);
#87=FACE_OUTER_BOUND('',#101,.T.);
#88=EDGE_LOOP('',(#102));
#89=EDGE_LOOP('',(#103));
#90=EDGE_LOOP('',(#104));
#91=EDGE_LOOP('',(#105));
#92=EDGE_LOOP('',(#106));
#93=EDGE_LOOP('',(#107));
#94=EDGE_LOOP('',(#108));
#95=EDGE_LOOP('',(#109));
#96=EDGE_LOOP('',(#110));
#97=EDGE_LOOP('',(#111));
#98=EDGE_LOOP('',(#112));
#99=EDGE_LOOP('',(#113));
#100=EDGE_LOOP('',(#114));
#101=EDGE_LOOP('',(#115));
#102=ORIENTED_EDGE('',*,*,#123,.F.);
#103=ORIENTED_EDGE('',*,*,#124,.F.);
#104=ORIENTED_EDGE('',*,*,#123,.T.);
#105=ORIENTED_EDGE('',*,*,#124,.T.);
#106=ORIENTED_EDGE('',*,*,#125,.F.);
#107=ORIENTED_EDGE('',*,*,#125,.T.);
#108=ORIENTED_EDGE('',*,*,#126,.F.);
#109=ORIENTED_EDGE('',*,*,#126,.T.);
#110=ORIENTED_EDGE('',*,*,#127,.T.);
#111=ORIENTED_EDGE('',*,*,#128,.T.);
#112=ORIENTED_EDGE('',*,*,#127,.F.);
#113=ORIENTED_EDGE('',*,*,#128,.F.);
#114=ORIENTED_EDGE('',*,*,#129,.F.);
#115=ORIENTED_EDGE('',*,*,#129,.T.);
#116=VERTEX_POINT('',#229);
#117=VERTEX_POINT('',#232);
#118=VERTEX_POINT('',#236);
#119=VERTEX_POINT('',#239);
#120=VERTEX_POINT('',#243);
#121=VERTEX_POINT('',#246);
#122=VERTEX_POINT('',#249);
#123=EDGE_CURVE('',#116,#116,#130,.T.);
#124=EDGE_CURVE('',#117,#117,#131,.T.);
#125=EDGE_CURVE('',#118,#118,#132,.T.);
#126=EDGE_CURVE('',#119,#119,#133,.T.);
#127=EDGE_CURVE('',#120,#120,#134,.T.);
#128=EDGE_CURVE('',#121,#121,#135,.T.);
#129=EDGE_CURVE('',#122,#122,#136,.T.);
#130=CIRCLE('',#165,2.00000000000062);
#131=CIRCLE('',#167,2.00000000000124);
#132=CIRCLE('',#170,1.84999999999966);
#133=CIRCLE('',#172,2.99999999999995);
#134=CIRCLE('',#175,2.5);
#135=CIRCLE('',#177,2.99999999999999);
#136=CIRCLE('',#179,2.99999999999995);
#137=PRESENTATION_LAYER_ASSIGNMENT('1','Layer 1',(#162,#163,#164,#52));
#138=PRESENTATION_LAYER_ASSIGNMENT('3','Layer 3',(#50));
#139=PRESENTATION_LAYER_ASSIGNMENT('2','Layer 2',(#51));
#140=STYLED_ITEM('',(#146),#162);
#141=STYLED_ITEM('',(#147),#163);
#142=STYLED_ITEM('',(#148),#164);
#143=STYLED_ITEM('',(#149),#50);
#144=STYLED_ITEM('',(#150),#51);
#145=STYLED_ITEM('',(#151),#52);
#146=PRESENTATION_STYLE_ASSIGNMENT((#152));
#147=PRESENTATION_STYLE_ASSIGNMENT((#153));
#148=PRESENTATION_STYLE_ASSIGNMENT((#154));
#149=PRESENTATION_STYLE_ASSIGNMENT((#35));
#150=PRESENTATION_STYLE_ASSIGNMENT((#36));
#151=PRESENTATION_STYLE_ASSIGNMENT((#37));
#152=CURVE_STYLE('',#158,POSITIVE_LENGTH_MEASURE(0.18),#155);
#153=CURVE_STYLE('',#159,POSITIVE_LENGTH_MEASURE(0.18),#155);
#154=CURVE_STYLE('',#160,POSITIVE_LENGTH_MEASURE(0.18),#155);
#155=COLOUR_RGB('Strong Stone',0.576470588235294,0.54508278019379,0.392156862745098);
#156=COLOUR_RGB('Light Gray',0.8,0.8,0.8);
#157=COLOUR_RGB('Medium Gray',0.490196078431373,0.490196078431373,0.490196078431373);
#158=DRAUGHTING_PRE_DEFINED_CURVE_FONT('continuous');
#159=DRAUGHTING_PRE_DEFINED_CURVE_FONT('continuous');
#160=DRAUGHTING_PRE_DEFINED_CURVE_FONT('continuous');
#161=AXIS2_PLACEMENT_3D('',#224,#182,#183);
#162=AXIS2_PLACEMENT_3D('MCS',#225,#184,#185);
#163=AXIS2_PLACEMENT_3D('PCS',#226,#186,#187);
#164=AXIS2_PLACEMENT_3D('CIP',#227,#188,#189);
#165=AXIS2_PLACEMENT_3D('',#228,#190,#191);
#166=AXIS2_PLACEMENT_3D('',#230,#192,#193);
#167=AXIS2_PLACEMENT_3D('',#231,#194,#195);
#168=AXIS2_PLACEMENT_3D('',#233,#196,#197);
#169=AXIS2_PLACEMENT_3D('',#234,#198,#199);
#170=AXIS2_PLACEMENT_3D('',#235,#200,#201);
#171=AXIS2_PLACEMENT_3D('',#237,#202,#203);
#172=AXIS2_PLACEMENT_3D('',#238,#204,#205);
#173=AXIS2_PLACEMENT_3D('',#240,#206,#207);
#174=AXIS2_PLACEMENT_3D('',#241,#208,#209);
#175=AXIS2_PLACEMENT_3D('',#242,#210,#211);
#176=AXIS2_PLACEMENT_3D('',#244,#212,#213);
#177=AXIS2_PLACEMENT_3D('',#245,#214,#215);
#178=AXIS2_PLACEMENT_3D('',#247,#216,#217);
#179=AXIS2_PLACEMENT_3D('',#248,#218,#219);
#180=AXIS2_PLACEMENT_3D('',#250,#220,#221);
#181=AXIS2_PLACEMENT_3D('',#251,#222,#223);
#182=DIRECTION('',(0.,0.,1.));
#183=DIRECTION('',(1.,0.,0.));
#184=DIRECTION('',(0.,0.,1.));
#185=DIRECTION('',(1.,0.,0.));
#186=DIRECTION('',(0.,0.,1.));
#187=DIRECTION('',(1.,0.,0.));
#188=DIRECTION('',(0.,0.,1.));
#189=DIRECTION('',(1.,0.,0.));
#190=DIRECTION('',(0.,-3.09974268475344E-13,1.));
#191=DIRECTION('',(0.,-1.,-3.08780778723776E-13));
#192=DIRECTION('',(0.,-3.09974268475344E-13,1.));
#193=DIRECTION('',(0.,1.,3.08780778723872E-13));
#194=DIRECTION('',(0.,-3.09974268475344E-13,1.));
#195=DIRECTION('',(0.,-1.,-3.0878077872368E-13));
#196=DIRECTION('',(0.,-3.09974268475344E-13,1.));
#197=DIRECTION('',(0.,1.,3.08780778723728E-13));
#198=DIRECTION('',(0.,3.09974268475344E-13,-1.));
#199=DIRECTION('',(0.,-1.,-3.09974268475344E-13));
#200=DIRECTION('',(0.,-1.30889451324229E-15,1.));
#201=DIRECTION('',(0.,-1.,0.));
#202=DIRECTION('',(0.,1.30889451324229E-15,-1.));
#203=DIRECTION('',(0.,-1.,-1.31145094783847E-15));
#204=DIRECTION('',(0.,-1.30889451324229E-15,1.));
#205=DIRECTION('',(0.,-1.,-1.30889451324229E-15));
#206=DIRECTION('',(0.,-1.30889451324229E-15,1.));
#207=DIRECTION('',(0.,1.,0.));
#208=DIRECTION('',(0.,0.,1.));
#209=DIRECTION('',(1.,0.,0.));
#210=DIRECTION('',(0.,-1.30889451324229E-15,1.));
#211=DIRECTION('',(0.,-1.,-1.38777878078145E-15));
#212=DIRECTION('',(0.,-1.30889451324229E-15,1.));
#213=DIRECTION('',(0.,1.,1.30798150088651E-15));
#214=DIRECTION('',(0.,-1.30889451324229E-15,1.));
#215=DIRECTION('',(0.,-1.,-1.15648231731788E-15));
#216=DIRECTION('',(0.,1.30889451324229E-15,-1.));
#217=DIRECTION('',(0.,-1.,-1.38431798581659E-15));
#218=DIRECTION('',(0.,0.,-1.));
#219=DIRECTION('',(1.,0.,0.));
#220=DIRECTION('',(0.,-1.30889451324229E-15,1.));
#221=DIRECTION('',(0.,1.,2.31296463463578E-15));
#222=DIRECTION('',(0.,0.,1.));
#223=DIRECTION('',(1.,0.,0.));
#224=CARTESIAN_POINT('',(0.,0.,0.));
#225=CARTESIAN_POINT('',(0.,0.,0.));
#226=CARTESIAN_POINT('',(0.,-4.06879472446302E-14,31.0857344369496));
#227=CARTESIAN_POINT('',(2.99951956532433E-32,5.79383054385971E-13,-48.9142655630503));
#228=CARTESIAN_POINT('',(0.,-6.60636484195126E-13,-46.914265563051));
#229=CARTESIAN_POINT('',(0.,-2.00000000000128,-46.9142655630517));
#230=CARTESIAN_POINT('',(0.,-4.06879472446302E-14,-46.9142655630503));
#231=CARTESIAN_POINT('',(0.,-1.28058502114582E-12,-44.914265563051));
#232=CARTESIAN_POINT('',(0.,-2.00000000000252,-44.9142655630517));
#233=CARTESIAN_POINT('',(0.,-4.06879472446302E-14,-48.9142655630503));
#234=CARTESIAN_POINT('',(0.,1.99999999999984,-44.91426556305));
#235=CARTESIAN_POINT('',(0.,5.87880357617838E-14,-44.9142655630504));
#236=CARTESIAN_POINT('',(0.,-1.8499999999996,-44.9142655630504));
#237=CARTESIAN_POINT('',(0.,1.84999999999972,-44.9142655630504));
#238=CARTESIAN_POINT('',(0.,0.,0.));
#239=CARTESIAN_POINT('',(0.,-2.99999999999995,-3.9266835397268E-15));
#240=CARTESIAN_POINT('',(0.,0.,0.));
#241=CARTESIAN_POINT('',(0.,0.,0.));
#242=CARTESIAN_POINT('',(0.,-4.06879472446302E-14,31.0857344369496));
#243=CARTESIAN_POINT('',(0.,-2.50000000000004,31.0857344369496));
#244=CARTESIAN_POINT('',(0.,-4.06879472446303E-14,31.0857344369496));
#245=CARTESIAN_POINT('',(0.,-4.00334999880091E-14,30.5857344369497));
#246=CARTESIAN_POINT('',(0.,-3.00000000000003,30.5857344369497));
#247=CARTESIAN_POINT('',(0.,-4.06879472446302E-14,31.0857344369496));
#248=CARTESIAN_POINT('',(0.,-9.86076131526265E-29,0.));
#249=CARTESIAN_POINT('',(2.99999999999995,-9.86076131526265E-29,0.));
#250=CARTESIAN_POINT('',(0.,5.87880357617838E-14,-44.9142655630504));
#251=CARTESIAN_POINT('',(0.,0.,0.));
#252=MECHANICAL_DESIGN_GEOMETRIC_PRESENTATION_REPRESENTATION('',(#140,#141,
#142,#143,#144,#145),#253);
#253=(
GEOMETRIC_REPRESENTATION_CONTEXT(3)
GLOBAL_UNCERTAINTY_ASSIGNED_CONTEXT((#254))
GLOBAL_UNIT_ASSIGNED_CONTEXT((#260,#256,#255))
REPRESENTATION_CONTEXT('111VL040-MEGA-64','TOP_LEVEL_ASSEMBLY_PART')
);
#254=UNCERTAINTY_MEASURE_WITH_UNIT(LENGTH_MEASURE(2.E-5),#260,
'DISTANCE_ACCURACY_VALUE','Maximum Tolerance applied to model');
#255=(
NAMED_UNIT(*)
SI_UNIT($,.STERADIAN.)
SOLID_ANGLE_UNIT()
);
#256=(
CONVERSION_BASED_UNIT('DEGREE',#258)
NAMED_UNIT(#257)
PLANE_ANGLE_UNIT()
);
#257=DIMENSIONAL_EXPONENTS(0.,0.,0.,0.,0.,0.,0.);
#258=PLANE_ANGLE_MEASURE_WITH_UNIT(PLANE_ANGLE_MEASURE(0.0174532925),#259);
#259=(
NAMED_UNIT(*)
PLANE_ANGLE_UNIT()
SI_UNIT($,.RADIAN.)
);
#260=(
LENGTH_UNIT()
NAMED_UNIT(*)
SI_UNIT(.MILLI.,.METRE.)
);
ENDSEC;
END-ISO-10303-21;
