ISO-10303-21;
HEADER;
/* Generated by software containing ST-Developer
 * from STEP Tools, Inc. (www.steptools.com) 
 */
/* OPTION: using custom schema-name function */

FILE_DESCRIPTION(
/* description */ (''),
/* implementation_level */ '2;1');

FILE_NAME(
/* name */ '02508348.stp',
/* time_stamp */ '2012-03-01T11:48:11+05:00',
/* author */ (''),
/* organization */ (''),
/* preprocessor_version */ 'ST-DEVELOPER v11',
/* originating_system */ 'SIEMENS PLM Software NX 7.5',
/* authorisation */ '');

FILE_SCHEMA (('AUTOMOTIVE_DESIGN { 1 0 10303 214 1 1 1 1 }'));
ENDSEC;

DATA;
#10=SHAPE_REPRESENTATION_RELATIONSHIP('None',
'relationship between inpuADC96r3d-None and inpuADC96r3d-None',#22,#11);
#11=ADVANCED_BREP_SHAPE_REPRESENTATION('inpuADC96r3d-None',(#44,#45,#46,
#47,#189),#303);
#12=SHAPE_DEFINITION_REPRESENTATION(#13,#22);
#13=PRODUCT_DEFINITION_SHAPE('','',#14);
#14=PRODUCT_DEFINITION(' ','',#16,#15);
#15=PRODUCT_DEFINITION_CONTEXT('part definition',#21,'design');
#16=PRODUCT_DEFINITION_FORMATION_WITH_SPECIFIED_SOURCE(' ',' ',#18,.NOT_KNOWN.);
#17=PRODUCT_RELATED_PRODUCT_CATEGORY('part','',(#18));
#18=PRODUCT('inpuADC96r3d','inpuADC96r3d',' ',(#19));
#19=PRODUCT_CONTEXT(' ',#21,'mechanical');
#20=APPLICATION_PROTOCOL_DEFINITION('international standard',
'automotive_design',2001,#21);
#21=APPLICATION_CONTEXT(
'core data for automotive mechanical design processes');
#22=SHAPE_REPRESENTATION('inpuADC96r3d-None',(#188),#303);
#23=SPHERICAL_SURFACE('',#198,1.5);
#24=SURFACE_STYLE_USAGE(.BOTH.,#28);
#25=SURFACE_STYLE_USAGE(.BOTH.,#29);
#26=SURFACE_STYLE_USAGE(.BOTH.,#30);
#27=SURFACE_STYLE_USAGE(.BOTH.,#31);
#28=SURFACE_SIDE_STYLE('',(#32));
#29=SURFACE_SIDE_STYLE('',(#33));
#30=SURFACE_SIDE_STYLE('',(#34));
#31=SURFACE_SIDE_STYLE('',(#35));
#32=SURFACE_STYLE_FILL_AREA(#36);
#33=SURFACE_STYLE_FILL_AREA(#37);
#34=SURFACE_STYLE_FILL_AREA(#38);
#35=SURFACE_STYLE_FILL_AREA(#39);
#36=FILL_AREA_STYLE('',(#40));
#37=FILL_AREA_STYLE('',(#41));
#38=FILL_AREA_STYLE('',(#42));
#39=FILL_AREA_STYLE('',(#43));
#40=FILL_AREA_STYLE_COLOUR('',#185);
#41=FILL_AREA_STYLE_COLOUR('',#186);
#42=FILL_AREA_STYLE_COLOUR('',#185);
#43=FILL_AREA_STYLE_COLOUR('',#185);
#44=MANIFOLD_SOLID_BREP('',#48);
#45=MANIFOLD_SOLID_BREP('',#49);
#46=MANIFOLD_SOLID_BREP('',#50);
#47=MANIFOLD_SOLID_BREP('',#51);
#48=CLOSED_SHELL('',(#69,#70,#71,#72));
#49=CLOSED_SHELL('',(#73,#74,#75));
#50=CLOSED_SHELL('',(#76,#77,#78,#79));
#51=CLOSED_SHELL('',(#80,#81,#82));
#52=CONICAL_SURFACE('',#195,1.4,2.46669999999938);
#53=CONICAL_SURFACE('',#205,3.,45.);
#54=PLANE('',#194);
#55=PLANE('',#196);
#56=PLANE('',#201);
#57=PLANE('',#203);
#58=PLANE('',#208);
#59=PLANE('',#210);
#60=PLANE('',#212);
#61=FACE_OUTER_BOUND('',#101,.T.);
#62=FACE_OUTER_BOUND('',#104,.T.);
#63=FACE_OUTER_BOUND('',#105,.T.);
#64=FACE_OUTER_BOUND('',#108,.T.);
#65=FACE_OUTER_BOUND('',#109,.T.);
#66=FACE_OUTER_BOUND('',#114,.T.);
#67=FACE_OUTER_BOUND('',#115,.T.);
#68=FACE_OUTER_BOUND('',#116,.T.);
#69=ADVANCED_FACE('',(#87,#88),#83,.T.);
#70=ADVANCED_FACE('',(#61),#54,.F.);
#71=ADVANCED_FACE('',(#89,#90),#52,.T.);
#72=ADVANCED_FACE('',(#62),#55,.F.);
#73=ADVANCED_FACE('',(#63),#23,.T.);
#74=ADVANCED_FACE('',(#91,#92),#84,.T.);
#75=ADVANCED_FACE('',(#64),#56,.F.);
#76=ADVANCED_FACE('',(#65),#57,.F.);
#77=ADVANCED_FACE('',(#93,#94),#53,.T.);
#78=ADVANCED_FACE('',(#95,#96),#85,.T.);
#79=ADVANCED_FACE('',(#66),#58,.F.);
#80=ADVANCED_FACE('',(#67),#59,.T.);
#81=ADVANCED_FACE('',(#68),#60,.T.);
#82=ADVANCED_FACE('',(#97,#98),#86,.T.);
#83=CYLINDRICAL_SURFACE('',#192,3.);
#84=CYLINDRICAL_SURFACE('',#200,1.49999999999999);
#85=CYLINDRICAL_SURFACE('',#207,3.);
#86=CYLINDRICAL_SURFACE('',#213,3.);
#87=FACE_BOUND('',#99,.T.);
#88=FACE_BOUND('',#100,.T.);
#89=FACE_BOUND('',#102,.T.);
#90=FACE_BOUND('',#103,.T.);
#91=FACE_BOUND('',#106,.T.);
#92=FACE_BOUND('',#107,.T.);
#93=FACE_BOUND('',#110,.T.);
#94=FACE_BOUND('',#111,.T.);
#95=FACE_BOUND('',#112,.T.);
#96=FACE_BOUND('',#113,.T.);
#97=FACE_BOUND('',#117,.T.);
#98=FACE_BOUND('',#118,.T.);
#99=EDGE_LOOP('',(#119));
#100=EDGE_LOOP('',(#120));
#101=EDGE_LOOP('',(#121));
#102=EDGE_LOOP('',(#122));
#103=EDGE_LOOP('',(#123));
#104=EDGE_LOOP('',(#124));
#105=EDGE_LOOP('',(#125));
#106=EDGE_LOOP('',(#126));
#107=EDGE_LOOP('',(#127));
#108=EDGE_LOOP('',(#128));
#109=EDGE_LOOP('',(#129));
#110=EDGE_LOOP('',(#130));
#111=EDGE_LOOP('',(#131));
#112=EDGE_LOOP('',(#132));
#113=EDGE_LOOP('',(#133));
#114=EDGE_LOOP('',(#134));
#115=EDGE_LOOP('',(#135));
#116=EDGE_LOOP('',(#136));
#117=EDGE_LOOP('',(#137));
#118=EDGE_LOOP('',(#138));
#119=ORIENTED_EDGE('',*,*,#149,.T.);
#120=ORIENTED_EDGE('',*,*,#150,.T.);
#121=ORIENTED_EDGE('',*,*,#151,.F.);
#122=ORIENTED_EDGE('',*,*,#150,.F.);
#123=ORIENTED_EDGE('',*,*,#151,.T.);
#124=ORIENTED_EDGE('',*,*,#149,.F.);
#125=ORIENTED_EDGE('',*,*,#152,.F.);
#126=ORIENTED_EDGE('',*,*,#153,.F.);
#127=ORIENTED_EDGE('',*,*,#152,.T.);
#128=ORIENTED_EDGE('',*,*,#153,.T.);
#129=ORIENTED_EDGE('',*,*,#154,.T.);
#130=ORIENTED_EDGE('',*,*,#154,.F.);
#131=ORIENTED_EDGE('',*,*,#155,.T.);
#132=ORIENTED_EDGE('',*,*,#156,.T.);
#133=ORIENTED_EDGE('',*,*,#155,.F.);
#134=ORIENTED_EDGE('',*,*,#156,.F.);
#135=ORIENTED_EDGE('',*,*,#157,.T.);
#136=ORIENTED_EDGE('',*,*,#158,.T.);
#137=ORIENTED_EDGE('',*,*,#158,.F.);
#138=ORIENTED_EDGE('',*,*,#157,.F.);
#139=VERTEX_POINT('',#269);
#140=VERTEX_POINT('',#271);
#141=VERTEX_POINT('',#274);
#142=VERTEX_POINT('',#279);
#143=VERTEX_POINT('',#282);
#144=VERTEX_POINT('',#286);
#145=VERTEX_POINT('',#289);
#146=VERTEX_POINT('',#292);
#147=VERTEX_POINT('',#296);
#148=VERTEX_POINT('',#299);
#149=EDGE_CURVE('',#139,#139,#159,.T.);
#150=EDGE_CURVE('',#140,#140,#160,.T.);
#151=EDGE_CURVE('',#141,#141,#161,.T.);
#152=EDGE_CURVE('',#142,#142,#162,.T.);
#153=EDGE_CURVE('',#143,#143,#163,.T.);
#154=EDGE_CURVE('',#144,#144,#164,.T.);
#155=EDGE_CURVE('',#145,#145,#165,.T.);
#156=EDGE_CURVE('',#146,#146,#166,.T.);
#157=EDGE_CURVE('',#147,#147,#167,.T.);
#158=EDGE_CURVE('',#148,#148,#168,.T.);
#159=CIRCLE('',#190,3.);
#160=CIRCLE('',#191,3.);
#161=CIRCLE('',#193,1.4);
#162=CIRCLE('',#197,1.5);
#163=CIRCLE('',#199,1.49999999999999);
#164=CIRCLE('',#202,2.5);
#165=CIRCLE('',#204,3.);
#166=CIRCLE('',#206,3.);
#167=CIRCLE('',#209,3.);
#168=CIRCLE('',#211,3.);
#169=PRESENTATION_LAYER_ASSIGNMENT('1','Layer 1',(#189,#46));
#170=PRESENTATION_LAYER_ASSIGNMENT('3','Layer 3',(#44));
#171=PRESENTATION_LAYER_ASSIGNMENT('4','Layer 4',(#45));
#172=PRESENTATION_LAYER_ASSIGNMENT('2','Layer 2',(#47));
#173=STYLED_ITEM('',(#178),#189);
#174=STYLED_ITEM('',(#179),#44);
#175=STYLED_ITEM('',(#180),#45);
#176=STYLED_ITEM('',(#181),#46);
#177=STYLED_ITEM('',(#182),#47);
#178=PRESENTATION_STYLE_ASSIGNMENT((#183));
#179=PRESENTATION_STYLE_ASSIGNMENT((#24));
#180=PRESENTATION_STYLE_ASSIGNMENT((#25));
#181=PRESENTATION_STYLE_ASSIGNMENT((#26));
#182=PRESENTATION_STYLE_ASSIGNMENT((#27));
#183=CURVE_STYLE('',#187,POSITIVE_LENGTH_MEASURE(0.176388888888889),#184);
#184=COLOUR_RGB('Deep Blue',0.,0.,0.752941176470588);
#185=COLOUR_RGB('Medium Gray',0.490196078431373,0.490196078431373,0.490196078431373);
#186=COLOUR_RGB('Light Gray',0.8,0.8,0.8);
#187=DRAUGHTING_PRE_DEFINED_CURVE_FONT('continuous');
#188=AXIS2_PLACEMENT_3D('',#266,#214,#215);
#189=AXIS2_PLACEMENT_3D('',#267,#216,#217);
#190=AXIS2_PLACEMENT_3D('',#268,#218,#219);
#191=AXIS2_PLACEMENT_3D('',#270,#220,#221);
#192=AXIS2_PLACEMENT_3D('',#272,#222,#223);
#193=AXIS2_PLACEMENT_3D('',#273,#224,#225);
#194=AXIS2_PLACEMENT_3D('',#275,#226,#227);
#195=AXIS2_PLACEMENT_3D('',#276,#228,#229);
#196=AXIS2_PLACEMENT_3D('',#277,#230,#231);
#197=AXIS2_PLACEMENT_3D('',#278,#232,#233);
#198=AXIS2_PLACEMENT_3D('',#280,#234,#235);
#199=AXIS2_PLACEMENT_3D('',#281,#236,#237);
#200=AXIS2_PLACEMENT_3D('',#283,#238,#239);
#201=AXIS2_PLACEMENT_3D('',#284,#240,#241);
#202=AXIS2_PLACEMENT_3D('',#285,#242,#243);
#203=AXIS2_PLACEMENT_3D('',#287,#244,#245);
#204=AXIS2_PLACEMENT_3D('',#288,#246,#247);
#205=AXIS2_PLACEMENT_3D('',#290,#248,#249);
#206=AXIS2_PLACEMENT_3D('',#291,#250,#251);
#207=AXIS2_PLACEMENT_3D('',#293,#252,#253);
#208=AXIS2_PLACEMENT_3D('',#294,#254,#255);
#209=AXIS2_PLACEMENT_3D('',#295,#256,#257);
#210=AXIS2_PLACEMENT_3D('',#297,#258,#259);
#211=AXIS2_PLACEMENT_3D('',#298,#260,#261);
#212=AXIS2_PLACEMENT_3D('',#300,#262,#263);
#213=AXIS2_PLACEMENT_3D('',#301,#264,#265);
#214=DIRECTION('',(0.,0.,1.));
#215=DIRECTION('',(1.,0.,0.));
#216=DIRECTION('',(0.,0.,1.));
#217=DIRECTION('',(-1.83690953073357E-016,-1.,0.));
#218=DIRECTION('',(0.,0.,-1.));
#219=DIRECTION('',(-1.,0.,0.));
#220=DIRECTION('',(0.,0.,1.));
#221=DIRECTION('',(1.,0.,0.));
#222=DIRECTION('',(0.,0.,1.));
#223=DIRECTION('',(1.,0.,0.));
#224=DIRECTION('',(0.,0.,1.));
#225=DIRECTION('',(1.,0.,0.));
#226=DIRECTION('',(0.,0.,1.));
#227=DIRECTION('',(1.,0.,0.));
#228=DIRECTION('',(0.,0.,1.));
#229=DIRECTION('',(1.,0.,3.12010059416048E-016));
#230=DIRECTION('',(0.,0.,-1.));
#231=DIRECTION('',(-1.,0.,0.));
#232=DIRECTION('',(0.,0.,1.));
#233=DIRECTION('',(1.,0.,0.));
#234=DIRECTION('',(0.,6.12323399573677E-017,1.));
#235=DIRECTION('',(0.,1.,0.));
#236=DIRECTION('',(0.,0.,1.));
#237=DIRECTION('',(1.,0.,0.));
#238=DIRECTION('',(0.,0.,1.));
#239=DIRECTION('',(1.,0.,0.));
#240=DIRECTION('',(0.,0.,-1.));
#241=DIRECTION('',(-1.,0.,0.));
#242=DIRECTION('',(0.,0.,1.));
#243=DIRECTION('',(1.,0.,0.));
#244=DIRECTION('',(0.,0.,-1.));
#245=DIRECTION('',(-1.,0.,0.));
#246=DIRECTION('',(0.,0.,1.));
#247=DIRECTION('',(1.,0.,0.));
#248=DIRECTION('',(0.,0.,-1.));
#249=DIRECTION('',(-1.,0.,-3.45906974272544E-017));
#250=DIRECTION('',(0.,0.,1.));
#251=DIRECTION('',(1.,0.,0.));
#252=DIRECTION('',(0.,0.,1.));
#253=DIRECTION('',(1.,0.,0.));
#254=DIRECTION('',(0.,0.,1.));
#255=DIRECTION('',(1.,0.,0.));
#256=DIRECTION('',(0.,0.,-1.));
#257=DIRECTION('',(-1.,0.,0.));
#258=DIRECTION('',(0.,0.,-1.));
#259=DIRECTION('',(-1.,0.,0.));
#260=DIRECTION('',(0.,0.,1.));
#261=DIRECTION('',(1.,0.,0.));
#262=DIRECTION('',(0.,0.,1.));
#263=DIRECTION('',(1.,0.,0.));
#264=DIRECTION('',(0.,0.,1.));
#265=DIRECTION('',(1.,0.,0.));
#266=CARTESIAN_POINT('',(0.,0.,0.));
#267=CARTESIAN_POINT('',(0.,0.,0.));
#268=CARTESIAN_POINT('',(0.,0.,-1.99999999999999));
#269=CARTESIAN_POINT('',(-3.,0.,-1.99999999999999));
#270=CARTESIAN_POINT('',(0.,0.,-5.85863619011388));
#271=CARTESIAN_POINT('',(3.,0.,-5.85863619011388));
#272=CARTESIAN_POINT('',(0.,0.,-42.9999999999999));
#273=CARTESIAN_POINT('',(0.,0.,-42.9999999999999));
#274=CARTESIAN_POINT('',(1.4,0.,-42.9999999999999));
#275=CARTESIAN_POINT('',(0.,0.,-42.9999999999999));
#276=CARTESIAN_POINT('',(0.,0.,-42.9999999999999));
#277=CARTESIAN_POINT('',(0.,0.,-1.99999999999999));
#278=CARTESIAN_POINT('',(0.,0.,-44.4999999999999));
#279=CARTESIAN_POINT('',(1.5,0.,-44.4999999999999));
#280=CARTESIAN_POINT('',(0.,0.,-44.4999999999999));
#281=CARTESIAN_POINT('',(0.,0.,-42.9999999999999));
#282=CARTESIAN_POINT('',(1.49999999999999,0.,-42.9999999999999));
#283=CARTESIAN_POINT('',(0.,0.,-45.9999999999999));
#284=CARTESIAN_POINT('',(0.,1.49999999999999,-42.9999999999999));
#285=CARTESIAN_POINT('',(0.,0.,34.));
#286=CARTESIAN_POINT('',(2.5,0.,34.));
#287=CARTESIAN_POINT('',(0.,2.5,34.));
#288=CARTESIAN_POINT('',(0.,0.,33.5));
#289=CARTESIAN_POINT('',(3.,0.,33.5));
#290=CARTESIAN_POINT('',(0.,0.,33.5));
#291=CARTESIAN_POINT('',(0.,0.,0.));
#292=CARTESIAN_POINT('',(3.,0.,0.));
#293=CARTESIAN_POINT('',(0.,0.,-42.9999999999999));
#294=CARTESIAN_POINT('',(0.,0.,0.));
#295=CARTESIAN_POINT('',(0.,0.,-1.99999999999999));
#296=CARTESIAN_POINT('',(-3.,0.,-1.99999999999999));
#297=CARTESIAN_POINT('',(0.,0.,-1.99999999999999));
#298=CARTESIAN_POINT('',(0.,0.,0.));
#299=CARTESIAN_POINT('',(3.,0.,0.));
#300=CARTESIAN_POINT('',(0.,0.,0.));
#301=CARTESIAN_POINT('',(0.,0.,-42.9999999999999));
#302=MECHANICAL_DESIGN_GEOMETRIC_PRESENTATION_REPRESENTATION('',(#173,#174,
#175,#176,#177),#303);
#303=(
GEOMETRIC_REPRESENTATION_CONTEXT(3)
GLOBAL_UNCERTAINTY_ASSIGNED_CONTEXT((#304))
GLOBAL_UNIT_ASSIGNED_CONTEXT((#310,#306,#305))
REPRESENTATION_CONTEXT('02508348','TOP_LEVEL_ASSEMBLY_PART')
);
#304=UNCERTAINTY_MEASURE_WITH_UNIT(LENGTH_MEASURE(2.E-005),#310,
'DISTANCE_ACCURACY_VALUE','Maximum Tolerance applied to model');
#305=(
NAMED_UNIT(*)
SI_UNIT($,.STERADIAN.)
SOLID_ANGLE_UNIT()
);
#306=(
CONVERSION_BASED_UNIT('DEGREE',#308)
NAMED_UNIT(#307)
PLANE_ANGLE_UNIT()
);
#307=DIMENSIONAL_EXPONENTS(0.,0.,0.,0.,0.,0.,0.);
#308=PLANE_ANGLE_MEASURE_WITH_UNIT(PLANE_ANGLE_MEASURE(0.0174532925),#309);
#309=(
NAMED_UNIT(*)
PLANE_ANGLE_UNIT()
SI_UNIT($,.RADIAN.)
);
#310=(
LENGTH_UNIT()
NAMED_UNIT(*)
SI_UNIT(.MILLI.,.METRE.)
);
ENDSEC;
END-ISO-10303-21;
