ISO-10303-21;
HEADER;
/* Generated by software containing ST-Developer
 * from STEP Tools, Inc. (www.steptools.com) 
 */
/* OPTION: using custom schema-name function */

FILE_DESCRIPTION(
/* description */ (''),
/* implementation_level */ '2;1');

FILE_NAME(
/* name */ '111VL020-MEGA-64.stp',
/* time_stamp */ '2017-12-13T13:52:22+05:00',
/* author */ (''),
/* organization */ (''),
/* preprocessor_version */ 'ST-DEVELOPER v16',
/* originating_system */ 'SIEMENS PLM Software NX 11.0',
/* authorisation */ '');

FILE_SCHEMA (('AUTOMOTIVE_DESIGN { 1 0 10303 214 3 1 1 1 }'));
ENDSEC;

DATA;
#10=CONSTRUCTIVE_GEOMETRY_REPRESENTATION_RELATIONSHIP(
'supplemental geometry','',#32,#11);
#11=CONSTRUCTIVE_GEOMETRY_REPRESENTATION('supplemental geometry',(#184,
#185,#186),#293);
#12=PROPERTY_DEFINITION_REPRESENTATION(#16,#14);
#13=PROPERTY_DEFINITION_REPRESENTATION(#17,#15);
#14=REPRESENTATION('',(#18),#293);
#15=REPRESENTATION('',(#19),#293);
#16=PROPERTY_DEFINITION('pmi validation property','',#23);
#17=PROPERTY_DEFINITION('pmi validation property','',#23);
#18=VALUE_REPRESENTATION_ITEM('number of annotations',COUNT_MEASURE(0.));
#19=VALUE_REPRESENTATION_ITEM('number of views',COUNT_MEASURE(0.));
#20=SHAPE_REPRESENTATION_RELATIONSHIP('None',
'relationship between 111VL020-MEGA-64-None and 111VL020-MEGA-64-None',
#32,#21);
#21=ADVANCED_BREP_SHAPE_REPRESENTATION('111VL020-MEGA-64-None',(#49,#50,
#51),#293);
#22=SHAPE_DEFINITION_REPRESENTATION(#23,#32);
#23=PRODUCT_DEFINITION_SHAPE('','',#24);
#24=PRODUCT_DEFINITION(' ','',#26,#25);
#25=PRODUCT_DEFINITION_CONTEXT('part definition',#31,'design');
#26=PRODUCT_DEFINITION_FORMATION_WITH_SPECIFIED_SOURCE(' ',' ',#28,
 .NOT_KNOWN.);
#27=PRODUCT_RELATED_PRODUCT_CATEGORY('part','',(#28));
#28=PRODUCT('inpuADC96r34','inpuADC96r34',' ',(#29));
#29=PRODUCT_CONTEXT(' ',#31,'mechanical');
#30=APPLICATION_PROTOCOL_DEFINITION('international standard',
'automotive_design',2010,#31);
#31=APPLICATION_CONTEXT(
'core data for automotive mechanical design processes');
#32=SHAPE_REPRESENTATION('111VL020-MEGA-64-None',(#183),#293);
#33=SPHERICAL_SURFACE('',#200,1.);
#34=SURFACE_STYLE_USAGE(.BOTH.,#37);
#35=SURFACE_STYLE_USAGE(.BOTH.,#38);
#36=SURFACE_STYLE_USAGE(.BOTH.,#39);
#37=SURFACE_SIDE_STYLE('',(#40));
#38=SURFACE_SIDE_STYLE('',(#41));
#39=SURFACE_SIDE_STYLE('',(#42));
#40=SURFACE_STYLE_FILL_AREA(#43);
#41=SURFACE_STYLE_FILL_AREA(#44);
#42=SURFACE_STYLE_FILL_AREA(#45);
#43=FILL_AREA_STYLE('',(#46));
#44=FILL_AREA_STYLE('',(#47));
#45=FILL_AREA_STYLE('',(#48));
#46=FILL_AREA_STYLE_COLOUR('',#178);
#47=FILL_AREA_STYLE_COLOUR('',#179);
#48=FILL_AREA_STYLE_COLOUR('',#178);
#49=MANIFOLD_SOLID_BREP('NOCUT',#52);
#50=MANIFOLD_SOLID_BREP('CUT',#53);
#51=MANIFOLD_SOLID_BREP('NOCUT',#54);
#52=CLOSED_SHELL('',(#69,#70,#71,#72,#73));
#53=CLOSED_SHELL('',(#74,#75,#76));
#54=CLOSED_SHELL('',(#77,#78,#79,#80));
#55=TOROIDAL_SURFACE('',#194,7.3669677265192,5.);
#56=CONICAL_SURFACE('',#193,0.949999999999989,2.46669999999975);
#57=CONICAL_SURFACE('',#204,3.00000000000002,45.0000000000005);
#58=PLANE('',#191);
#59=PLANE('',#195);
#60=PLANE('',#197);
#61=PLANE('',#202);
#62=PLANE('',#207);
#63=FACE_OUTER_BOUND('',#98,.T.);
#64=FACE_OUTER_BOUND('',#103,.T.);
#65=FACE_OUTER_BOUND('',#104,.T.);
#66=FACE_OUTER_BOUND('',#107,.T.);
#67=FACE_OUTER_BOUND('',#108,.T.);
#68=FACE_OUTER_BOUND('',#113,.T.);
#69=ADVANCED_FACE('',(#84,#85),#81,.T.);
#70=ADVANCED_FACE('',(#63),#58,.F.);
#71=ADVANCED_FACE('',(#86,#87),#56,.T.);
#72=ADVANCED_FACE('',(#88,#89),#55,.F.);
#73=ADVANCED_FACE('',(#64),#59,.T.);
#74=ADVANCED_FACE('',(#65),#60,.T.);
#75=ADVANCED_FACE('',(#90,#91),#82,.T.);
#76=ADVANCED_FACE('',(#66),#33,.T.);
#77=ADVANCED_FACE('',(#67),#61,.F.);
#78=ADVANCED_FACE('',(#92,#93),#57,.T.);
#79=ADVANCED_FACE('',(#94,#95),#83,.T.);
#80=ADVANCED_FACE('',(#68),#62,.F.);
#81=CYLINDRICAL_SURFACE('',#189,3.00000000000002);
#82=CYLINDRICAL_SURFACE('',#199,1.);
#83=CYLINDRICAL_SURFACE('',#206,3.00000000000002);
#84=FACE_BOUND('',#96,.T.);
#85=FACE_BOUND('',#97,.T.);
#86=FACE_BOUND('',#99,.T.);
#87=FACE_BOUND('',#100,.T.);
#88=FACE_BOUND('',#101,.T.);
#89=FACE_BOUND('',#102,.T.);
#90=FACE_BOUND('',#105,.T.);
#91=FACE_BOUND('',#106,.T.);
#92=FACE_BOUND('',#109,.T.);
#93=FACE_BOUND('',#110,.T.);
#94=FACE_BOUND('',#111,.T.);
#95=FACE_BOUND('',#112,.T.);
#96=EDGE_LOOP('',(#114));
#97=EDGE_LOOP('',(#115));
#98=EDGE_LOOP('',(#116));
#99=EDGE_LOOP('',(#117));
#100=EDGE_LOOP('',(#118));
#101=EDGE_LOOP('',(#119));
#102=EDGE_LOOP('',(#120));
#103=EDGE_LOOP('',(#121));
#104=EDGE_LOOP('',(#122));
#105=EDGE_LOOP('',(#123));
#106=EDGE_LOOP('',(#124));
#107=EDGE_LOOP('',(#125));
#108=EDGE_LOOP('',(#126));
#109=EDGE_LOOP('',(#127));
#110=EDGE_LOOP('',(#128));
#111=EDGE_LOOP('',(#129));
#112=EDGE_LOOP('',(#130));
#113=EDGE_LOOP('',(#131));
#114=ORIENTED_EDGE('',*,*,#141,.T.);
#115=ORIENTED_EDGE('',*,*,#142,.F.);
#116=ORIENTED_EDGE('',*,*,#143,.F.);
#117=ORIENTED_EDGE('',*,*,#144,.F.);
#118=ORIENTED_EDGE('',*,*,#143,.T.);
#119=ORIENTED_EDGE('',*,*,#141,.F.);
#120=ORIENTED_EDGE('',*,*,#144,.T.);
#121=ORIENTED_EDGE('',*,*,#142,.T.);
#122=ORIENTED_EDGE('',*,*,#145,.T.);
#123=ORIENTED_EDGE('',*,*,#146,.T.);
#124=ORIENTED_EDGE('',*,*,#145,.F.);
#125=ORIENTED_EDGE('',*,*,#146,.F.);
#126=ORIENTED_EDGE('',*,*,#147,.T.);
#127=ORIENTED_EDGE('',*,*,#147,.F.);
#128=ORIENTED_EDGE('',*,*,#148,.T.);
#129=ORIENTED_EDGE('',*,*,#149,.T.);
#130=ORIENTED_EDGE('',*,*,#148,.F.);
#131=ORIENTED_EDGE('',*,*,#149,.F.);
#132=VERTEX_POINT('',#263);
#133=VERTEX_POINT('',#265);
#134=VERTEX_POINT('',#268);
#135=VERTEX_POINT('',#271);
#136=VERTEX_POINT('',#276);
#137=VERTEX_POINT('',#279);
#138=VERTEX_POINT('',#283);
#139=VERTEX_POINT('',#286);
#140=VERTEX_POINT('',#289);
#141=EDGE_CURVE('',#132,#132,#150,.T.);
#142=EDGE_CURVE('',#133,#133,#151,.T.);
#143=EDGE_CURVE('',#134,#134,#152,.T.);
#144=EDGE_CURVE('',#135,#135,#153,.T.);
#145=EDGE_CURVE('',#136,#136,#154,.T.);
#146=EDGE_CURVE('',#137,#137,#155,.T.);
#147=EDGE_CURVE('',#138,#138,#156,.T.);
#148=EDGE_CURVE('',#139,#139,#157,.T.);
#149=EDGE_CURVE('',#140,#140,#158,.T.);
#150=CIRCLE('',#187,2.99999999999996);
#151=CIRCLE('',#188,3.00000000000002);
#152=CIRCLE('',#190,0.949999999999989);
#153=CIRCLE('',#192,2.37159561695883);
#154=CIRCLE('',#196,1.);
#155=CIRCLE('',#198,1.00000000000001);
#156=CIRCLE('',#201,2.50000000000001);
#157=CIRCLE('',#203,3.00000000000002);
#158=CIRCLE('',#205,3.00000000000002);
#159=PRESENTATION_LAYER_ASSIGNMENT('1','Layer 1',(#184,#185,#186,#51));
#160=PRESENTATION_LAYER_ASSIGNMENT('2','Layer 2',(#49));
#161=PRESENTATION_LAYER_ASSIGNMENT('3','Layer 3',(#50));
#162=STYLED_ITEM('',(#168),#184);
#163=STYLED_ITEM('',(#169),#185);
#164=STYLED_ITEM('',(#170),#186);
#165=STYLED_ITEM('',(#171),#49);
#166=STYLED_ITEM('',(#172),#50);
#167=STYLED_ITEM('',(#173),#51);
#168=PRESENTATION_STYLE_ASSIGNMENT((#174));
#169=PRESENTATION_STYLE_ASSIGNMENT((#175));
#170=PRESENTATION_STYLE_ASSIGNMENT((#176));
#171=PRESENTATION_STYLE_ASSIGNMENT((#34));
#172=PRESENTATION_STYLE_ASSIGNMENT((#35));
#173=PRESENTATION_STYLE_ASSIGNMENT((#36));
#174=CURVE_STYLE('',#180,POSITIVE_LENGTH_MEASURE(0.18),#177);
#175=CURVE_STYLE('',#181,POSITIVE_LENGTH_MEASURE(0.18),#177);
#176=CURVE_STYLE('',#182,POSITIVE_LENGTH_MEASURE(0.18),#177);
#177=COLOUR_RGB('Strong Stone',0.576470588235294,0.54508278019379,0.392156862745098);
#178=COLOUR_RGB('Medium Gray',0.490196078431373,0.490196078431373,0.490196078431373);
#179=COLOUR_RGB('Light Gray',0.8,0.8,0.8);
#180=DRAUGHTING_PRE_DEFINED_CURVE_FONT('continuous');
#181=DRAUGHTING_PRE_DEFINED_CURVE_FONT('continuous');
#182=DRAUGHTING_PRE_DEFINED_CURVE_FONT('continuous');
#183=AXIS2_PLACEMENT_3D('',#258,#208,#209);
#184=AXIS2_PLACEMENT_3D('MCS',#259,#210,#211);
#185=AXIS2_PLACEMENT_3D('PCS',#260,#212,#213);
#186=AXIS2_PLACEMENT_3D('CIP',#261,#214,#215);
#187=AXIS2_PLACEMENT_3D('',#262,#216,#217);
#188=AXIS2_PLACEMENT_3D('',#264,#218,#219);
#189=AXIS2_PLACEMENT_3D('',#266,#220,#221);
#190=AXIS2_PLACEMENT_3D('',#267,#222,#223);
#191=AXIS2_PLACEMENT_3D('',#269,#224,#225);
#192=AXIS2_PLACEMENT_3D('',#270,#226,#227);
#193=AXIS2_PLACEMENT_3D('',#272,#228,#229);
#194=AXIS2_PLACEMENT_3D('',#273,#230,#231);
#195=AXIS2_PLACEMENT_3D('',#274,#232,#233);
#196=AXIS2_PLACEMENT_3D('',#275,#234,#235);
#197=AXIS2_PLACEMENT_3D('',#277,#236,#237);
#198=AXIS2_PLACEMENT_3D('',#278,#238,#239);
#199=AXIS2_PLACEMENT_3D('',#280,#240,#241);
#200=AXIS2_PLACEMENT_3D('',#281,#242,#243);
#201=AXIS2_PLACEMENT_3D('',#282,#244,#245);
#202=AXIS2_PLACEMENT_3D('',#284,#246,#247);
#203=AXIS2_PLACEMENT_3D('',#285,#248,#249);
#204=AXIS2_PLACEMENT_3D('',#287,#250,#251);
#205=AXIS2_PLACEMENT_3D('',#288,#252,#253);
#206=AXIS2_PLACEMENT_3D('',#290,#254,#255);
#207=AXIS2_PLACEMENT_3D('',#291,#256,#257);
#208=DIRECTION('',(0.,0.,1.));
#209=DIRECTION('',(1.,0.,0.));
#210=DIRECTION('',(0.,0.,1.));
#211=DIRECTION('',(1.,0.,0.));
#212=DIRECTION('',(0.,0.,1.));
#213=DIRECTION('',(1.,0.,0.));
#214=DIRECTION('',(0.,0.,1.));
#215=DIRECTION('',(1.,0.,0.));
#216=DIRECTION('',(0.,-1.36642833800019E-16,1.));
#217=DIRECTION('',(0.,-1.,0.));
#218=DIRECTION('',(0.,0.,1.));
#219=DIRECTION('',(1.,0.,0.));
#220=DIRECTION('',(0.,-1.36642833800019E-16,1.));
#221=DIRECTION('',(0.,1.,0.));
#222=DIRECTION('',(0.,-1.36642833800019E-16,1.));
#223=DIRECTION('',(0.,-1.,0.));
#224=DIRECTION('',(0.,-1.36642833800019E-16,1.));
#225=DIRECTION('',(0.,1.,1.38777878078145E-16));
#226=DIRECTION('',(0.,-1.36642833800019E-16,1.));
#227=DIRECTION('',(0.,-1.,0.));
#228=DIRECTION('',(0.,-1.36642833800019E-16,1.));
#229=DIRECTION('',(0.,1.,-7.87997486472422E-16));
#230=DIRECTION('',(0.,-1.36642833800019E-16,1.));
#231=DIRECTION('',(0.,1.,1.40270720708435E-16));
#232=DIRECTION('',(0.,0.,1.));
#233=DIRECTION('',(-1.,0.,0.));
#234=DIRECTION('',(0.,5.32907051820075E-15,1.));
#235=DIRECTION('',(0.,-1.,6.93889390390723E-15));
#236=DIRECTION('',(0.,5.32907051820075E-15,1.));
#237=DIRECTION('',(0.,1.,-5.32907051820075E-15));
#238=DIRECTION('',(0.,5.32907051820075E-15,1.));
#239=DIRECTION('',(0.,-1.,6.93889390390716E-15));
#240=DIRECTION('',(0.,5.32907051820075E-15,1.));
#241=DIRECTION('',(0.,1.,-6.93889390390723E-15));
#242=DIRECTION('',(0.,5.32907051820075E-15,1.));
#243=DIRECTION('',(0.,-1.,6.93889390390723E-15));
#244=DIRECTION('',(0.,-1.36642833800019E-16,1.));
#245=DIRECTION('',(0.,-1.,0.));
#246=DIRECTION('',(0.,1.36642833800019E-16,-1.));
#247=DIRECTION('',(0.,-1.,-1.38777878078145E-16));
#248=DIRECTION('',(0.,-1.36642833800019E-16,1.));
#249=DIRECTION('',(0.,-1.,0.));
#250=DIRECTION('',(0.,1.36642833800019E-16,-1.));
#251=DIRECTION('',(0.,-1.,-1.38362789709015E-16));
#252=DIRECTION('',(0.,0.,1.));
#253=DIRECTION('',(1.,0.,0.));
#254=DIRECTION('',(0.,-1.36642833800019E-16,1.));
#255=DIRECTION('',(0.,1.,0.));
#256=DIRECTION('',(0.,0.,1.));
#257=DIRECTION('',(-1.,0.,0.));
#258=CARTESIAN_POINT('',(0.,0.,0.));
#259=CARTESIAN_POINT('',(0.,0.,0.));
#260=CARTESIAN_POINT('',(0.,-1.06581410364015E-14,36.));
#261=CARTESIAN_POINT('',(-1.49975978266187E-32,-1.60484438945596E-14,-44.));
#262=CARTESIAN_POINT('',(0.,-4.81256060643668E-15,-6.77999999999997));
#263=CARTESIAN_POINT('',(0.,-2.99999999999996,-6.77999999999997));
#264=CARTESIAN_POINT('',(0.,-5.73899901960081E-15,0.));
#265=CARTESIAN_POINT('',(3.00000000000002,-5.73899901960081E-15,0.));
#266=CARTESIAN_POINT('',(0.,0.,-42.));
#267=CARTESIAN_POINT('',(0.,1.77377008274545E-32,-42.));
#268=CARTESIAN_POINT('',(0.,-0.949999999999989,-42.));
#269=CARTESIAN_POINT('',(0.,8.86885041372725E-33,-42.));
#270=CARTESIAN_POINT('',(0.,-4.50921351540063E-15,-9.));
#271=CARTESIAN_POINT('',(0.,-2.37159561695883,-9.));
#272=CARTESIAN_POINT('',(0.,1.77377008274545E-32,-42.));
#273=CARTESIAN_POINT('',(0.,-4.33680868994202E-15,-9.21507553795344));
#274=CARTESIAN_POINT('',(0.,0.,0.));
#275=CARTESIAN_POINT('',(0.,0.,-42.));
#276=CARTESIAN_POINT('',(0.,-1.,-42.));
#277=CARTESIAN_POINT('',(0.,1.41994962939782E-29,-42.));
#278=CARTESIAN_POINT('',(0.,-5.32907051820075E-15,-43.));
#279=CARTESIAN_POINT('',(0.,-1.00000000000002,-43.));
#280=CARTESIAN_POINT('',(0.,-1.06581410364015E-14,-44.));
#281=CARTESIAN_POINT('',(0.,-1.06581410364015E-14,-43.));
#282=CARTESIAN_POINT('',(0.,-1.06581410364015E-14,36.));
#283=CARTESIAN_POINT('',(0.,-2.50000000000002,36.));
#284=CARTESIAN_POINT('',(0.,2.5,36.));
#285=CARTESIAN_POINT('',(0.,-1.05898196195015E-14,35.5));
#286=CARTESIAN_POINT('',(0.,-3.00000000000003,35.5));
#287=CARTESIAN_POINT('',(0.,-1.05898196195015E-14,35.5));
#288=CARTESIAN_POINT('',(0.,-5.73899901960081E-15,0.));
#289=CARTESIAN_POINT('',(3.00000000000002,-5.73899901960081E-15,0.));
#290=CARTESIAN_POINT('',(0.,0.,-42.));
#291=CARTESIAN_POINT('',(0.,0.,0.));
#292=MECHANICAL_DESIGN_GEOMETRIC_PRESENTATION_REPRESENTATION('',(#162,#163,
#164,#165,#166,#167),#293);
#293=(
GEOMETRIC_REPRESENTATION_CONTEXT(3)
GLOBAL_UNCERTAINTY_ASSIGNED_CONTEXT((#294))
GLOBAL_UNIT_ASSIGNED_CONTEXT((#300,#296,#295))
REPRESENTATION_CONTEXT('111VL020-MEGA-64','TOP_LEVEL_ASSEMBLY_PART')
);
#294=UNCERTAINTY_MEASURE_WITH_UNIT(LENGTH_MEASURE(2.E-5),#300,
'DISTANCE_ACCURACY_VALUE','Maximum Tolerance applied to model');
#295=(
NAMED_UNIT(*)
SI_UNIT($,.STERADIAN.)
SOLID_ANGLE_UNIT()
);
#296=(
CONVERSION_BASED_UNIT('DEGREE',#298)
NAMED_UNIT(#297)
PLANE_ANGLE_UNIT()
);
#297=DIMENSIONAL_EXPONENTS(0.,0.,0.,0.,0.,0.,0.);
#298=PLANE_ANGLE_MEASURE_WITH_UNIT(PLANE_ANGLE_MEASURE(0.0174532925),#299);
#299=(
NAMED_UNIT(*)
PLANE_ANGLE_UNIT()
SI_UNIT($,.RADIAN.)
);
#300=(
LENGTH_UNIT()
NAMED_UNIT(*)
SI_UNIT(.MILLI.,.METRE.)
);
ENDSEC;
END-ISO-10303-21;
