ISO-10303-21;
HEADER;
/* Generated by software containing ST-Developer
 * from STEP Tools, Inc. (www.steptools.com) 
 */
/* OPTION: using custom schema-name function */

FILE_DESCRIPTION(
/* description */ (''),
/* implementation_level */ '2;1');

FILE_NAME(
/* name */ '00039156.stp',
/* time_stamp */ '2012-03-01T13:18:06+06:00',
/* author */ (''),
/* organization */ (''),
/* preprocessor_version */ 'ST-DEVELOPER v11',
/* originating_system */ 'SIEMENS PLM Software NX 7.5',
/* authorisation */ '');

FILE_SCHEMA (('AUTOMOTIVE_DESIGN { 1 0 10303 214 1 1 1 1 }'));
ENDSEC;

DATA;
#10=SHAPE_REPRESENTATION_RELATIONSHIP('None',
'relationship between inpu6AA66rsi-None and inpu6AA66rsi-None',#22,#11);
#11=ADVANCED_BREP_SHAPE_REPRESENTATION('inpu6AA66rsi-None',(#50,#51,#52),
#218);
#12=SHAPE_DEFINITION_REPRESENTATION(#13,#22);
#13=PRODUCT_DEFINITION_SHAPE('','',#14);
#14=PRODUCT_DEFINITION(' ','',#16,#15);
#15=PRODUCT_DEFINITION_CONTEXT('part definition',#21,'design');
#16=PRODUCT_DEFINITION_FORMATION_WITH_SPECIFIED_SOURCE(' ',' ',#18,.NOT_KNOWN.);
#17=PRODUCT_RELATED_PRODUCT_CATEGORY('part','',(#18));
#18=PRODUCT('inpu6AA66rsi','inpu6AA66rsi',' ',(#19));
#19=PRODUCT_CONTEXT(' ',#21,'mechanical');
#20=APPLICATION_PROTOCOL_DEFINITION('international standard',
'automotive_design',2001,#21);
#21=APPLICATION_CONTEXT(
'core data for automotive mechanical design processes');
#22=SHAPE_REPRESENTATION('inpu6AA66rsi-None',(#138),#218);
#23=SPHERICAL_SURFACE('',#150,5.);
#24=PRESENTATION_LAYER_ASSIGNMENT('1','Layer 1',(#50));
#25=PRESENTATION_LAYER_ASSIGNMENT('4','Layer 4',(#51));
#26=PRESENTATION_LAYER_ASSIGNMENT('3','Layer 3',(#52));
#27=STYLED_ITEM('',(#30),#50);
#28=STYLED_ITEM('',(#31),#51);
#29=STYLED_ITEM('',(#32),#52);
#30=PRESENTATION_STYLE_ASSIGNMENT((#33));
#31=PRESENTATION_STYLE_ASSIGNMENT((#34));
#32=PRESENTATION_STYLE_ASSIGNMENT((#35));
#33=SURFACE_STYLE_USAGE(.BOTH.,#36);
#34=SURFACE_STYLE_USAGE(.BOTH.,#37);
#35=SURFACE_STYLE_USAGE(.BOTH.,#38);
#36=SURFACE_SIDE_STYLE('',(#39));
#37=SURFACE_SIDE_STYLE('',(#40));
#38=SURFACE_SIDE_STYLE('',(#41));
#39=SURFACE_STYLE_FILL_AREA(#42);
#40=SURFACE_STYLE_FILL_AREA(#43);
#41=SURFACE_STYLE_FILL_AREA(#44);
#42=FILL_AREA_STYLE('',(#45));
#43=FILL_AREA_STYLE('',(#46));
#44=FILL_AREA_STYLE('',(#47));
#45=FILL_AREA_STYLE_COLOUR('',#48);
#46=FILL_AREA_STYLE_COLOUR('',#49);
#47=FILL_AREA_STYLE_COLOUR('',#48);
#48=COLOUR_RGB('Medium Gray',0.490196078431373,0.490196078431373,0.490196078431373);
#49=COLOUR_RGB('Light Gray',0.8,0.8,0.8);
#50=MANIFOLD_SOLID_BREP('',#53);
#51=MANIFOLD_SOLID_BREP('',#54);
#52=MANIFOLD_SOLID_BREP('',#55);
#53=CLOSED_SHELL('',(#68,#69,#70,#71));
#54=CLOSED_SHELL('',(#72,#73,#74));
#55=CLOSED_SHELL('',(#75,#76,#77));
#56=CONICAL_SURFACE('',#144,4.19999999999999,45.0000000000002);
#57=PLANE('',#143);
#58=PLANE('',#145);
#59=PLANE('',#147);
#60=PLANE('',#152);
#61=PLANE('',#154);
#62=FACE_OUTER_BOUND('',#91,.T.);
#63=FACE_OUTER_BOUND('',#94,.T.);
#64=FACE_OUTER_BOUND('',#95,.T.);
#65=FACE_OUTER_BOUND('',#98,.T.);
#66=FACE_OUTER_BOUND('',#99,.T.);
#67=FACE_OUTER_BOUND('',#100,.T.);
#68=ADVANCED_FACE('',(#81,#82),#78,.T.);
#69=ADVANCED_FACE('',(#62),#57,.F.);
#70=ADVANCED_FACE('',(#83,#84),#56,.T.);
#71=ADVANCED_FACE('',(#63),#58,.F.);
#72=ADVANCED_FACE('',(#64),#59,.T.);
#73=ADVANCED_FACE('',(#85,#86),#79,.T.);
#74=ADVANCED_FACE('',(#65),#23,.T.);
#75=ADVANCED_FACE('',(#66),#60,.T.);
#76=ADVANCED_FACE('',(#67),#61,.F.);
#77=ADVANCED_FACE('',(#87,#88),#80,.T.);
#78=CYLINDRICAL_SURFACE('',#141,4.99999999999999);
#79=CYLINDRICAL_SURFACE('',#149,4.99999999999999);
#80=CYLINDRICAL_SURFACE('',#155,4.99999999999999);
#81=FACE_BOUND('',#89,.T.);
#82=FACE_BOUND('',#90,.T.);
#83=FACE_BOUND('',#92,.T.);
#84=FACE_BOUND('',#93,.T.);
#85=FACE_BOUND('',#96,.T.);
#86=FACE_BOUND('',#97,.T.);
#87=FACE_BOUND('',#101,.T.);
#88=FACE_BOUND('',#102,.T.);
#89=EDGE_LOOP('',(#103));
#90=EDGE_LOOP('',(#104));
#91=EDGE_LOOP('',(#105));
#92=EDGE_LOOP('',(#106));
#93=EDGE_LOOP('',(#107));
#94=EDGE_LOOP('',(#108));
#95=EDGE_LOOP('',(#109));
#96=EDGE_LOOP('',(#110));
#97=EDGE_LOOP('',(#111));
#98=EDGE_LOOP('',(#112));
#99=EDGE_LOOP('',(#113));
#100=EDGE_LOOP('',(#114));
#101=EDGE_LOOP('',(#115));
#102=EDGE_LOOP('',(#116));
#103=ORIENTED_EDGE('',*,*,#124,.T.);
#104=ORIENTED_EDGE('',*,*,#125,.T.);
#105=ORIENTED_EDGE('',*,*,#126,.T.);
#106=ORIENTED_EDGE('',*,*,#125,.F.);
#107=ORIENTED_EDGE('',*,*,#126,.F.);
#108=ORIENTED_EDGE('',*,*,#124,.F.);
#109=ORIENTED_EDGE('',*,*,#127,.T.);
#110=ORIENTED_EDGE('',*,*,#128,.T.);
#111=ORIENTED_EDGE('',*,*,#127,.F.);
#112=ORIENTED_EDGE('',*,*,#128,.F.);
#113=ORIENTED_EDGE('',*,*,#129,.T.);
#114=ORIENTED_EDGE('',*,*,#130,.F.);
#115=ORIENTED_EDGE('',*,*,#130,.T.);
#116=ORIENTED_EDGE('',*,*,#129,.F.);
#117=VERTEX_POINT('',#194);
#118=VERTEX_POINT('',#196);
#119=VERTEX_POINT('',#199);
#120=VERTEX_POINT('',#204);
#121=VERTEX_POINT('',#207);
#122=VERTEX_POINT('',#211);
#123=VERTEX_POINT('',#214);
#124=EDGE_CURVE('',#117,#117,#131,.T.);
#125=EDGE_CURVE('',#118,#118,#132,.T.);
#126=EDGE_CURVE('',#119,#119,#133,.T.);
#127=EDGE_CURVE('',#120,#120,#134,.T.);
#128=EDGE_CURVE('',#121,#121,#135,.T.);
#129=EDGE_CURVE('',#122,#122,#136,.T.);
#130=EDGE_CURVE('',#123,#123,#137,.T.);
#131=CIRCLE('',#139,4.99999999999999);
#132=CIRCLE('',#140,4.99999999999999);
#133=CIRCLE('',#142,4.19999999999999);
#134=CIRCLE('',#146,4.99999999999999);
#135=CIRCLE('',#148,4.99999999999999);
#136=CIRCLE('',#151,4.99999999999999);
#137=CIRCLE('',#153,4.99999999999999);
#138=AXIS2_PLACEMENT_3D('',#192,#156,#157);
#139=AXIS2_PLACEMENT_3D('',#193,#158,#159);
#140=AXIS2_PLACEMENT_3D('',#195,#160,#161);
#141=AXIS2_PLACEMENT_3D('',#197,#162,#163);
#142=AXIS2_PLACEMENT_3D('',#198,#164,#165);
#143=AXIS2_PLACEMENT_3D('',#200,#166,#167);
#144=AXIS2_PLACEMENT_3D('',#201,#168,#169);
#145=AXIS2_PLACEMENT_3D('',#202,#170,#171);
#146=AXIS2_PLACEMENT_3D('',#203,#172,#173);
#147=AXIS2_PLACEMENT_3D('',#205,#174,#175);
#148=AXIS2_PLACEMENT_3D('',#206,#176,#177);
#149=AXIS2_PLACEMENT_3D('',#208,#178,#179);
#150=AXIS2_PLACEMENT_3D('',#209,#180,#181);
#151=AXIS2_PLACEMENT_3D('',#210,#182,#183);
#152=AXIS2_PLACEMENT_3D('',#212,#184,#185);
#153=AXIS2_PLACEMENT_3D('',#213,#186,#187);
#154=AXIS2_PLACEMENT_3D('',#215,#188,#189);
#155=AXIS2_PLACEMENT_3D('',#216,#190,#191);
#156=DIRECTION('',(0.,0.,1.));
#157=DIRECTION('',(1.,0.,0.));
#158=DIRECTION('',(0.,0.,1.));
#159=DIRECTION('',(1.,0.,0.));
#160=DIRECTION('',(0.,1.92119519642761E-016,-1.));
#161=DIRECTION('',(0.,1.,0.));
#162=DIRECTION('',(0.,-1.9211951964276E-016,1.));
#163=DIRECTION('',(0.,-1.,-3.46944695195362E-016));
#164=DIRECTION('',(0.,-1.9211951964276E-016,1.));
#165=DIRECTION('',(0.,1.,0.));
#166=DIRECTION('',(0.,1.9211951964276E-016,-1.));
#167=DIRECTION('',(0.,1.,1.94289029309402E-016));
#168=DIRECTION('',(0.,1.92119519642761E-016,-1.));
#169=DIRECTION('',(0.,1.,1.93476428310497E-016));
#170=DIRECTION('',(0.,0.,1.));
#171=DIRECTION('',(1.,0.,0.));
#172=DIRECTION('',(0.,0.,1.));
#173=DIRECTION('',(1.,0.,0.));
#174=DIRECTION('',(0.,0.,1.));
#175=DIRECTION('',(1.,0.,0.));
#176=DIRECTION('',(0.,0.,1.));
#177=DIRECTION('',(1.,0.,0.));
#178=DIRECTION('',(0.,0.,1.));
#179=DIRECTION('',(1.,0.,0.));
#180=DIRECTION('',(6.12323399573677E-017,0.,1.));
#181=DIRECTION('',(1.,0.,0.));
#182=DIRECTION('',(0.,0.,1.));
#183=DIRECTION('',(1.,0.,0.));
#184=DIRECTION('',(0.,0.,1.));
#185=DIRECTION('',(1.,0.,0.));
#186=DIRECTION('',(0.,-1.9211951964276E-016,1.));
#187=DIRECTION('',(0.,-1.,-3.46944695195362E-016));
#188=DIRECTION('',(0.,-1.9211951964276E-016,1.));
#189=DIRECTION('',(0.,-1.,-1.92554305833426E-016));
#190=DIRECTION('',(0.,-1.9211951964276E-016,1.));
#191=DIRECTION('',(0.,-1.,-3.46944695195362E-016));
#192=CARTESIAN_POINT('',(0.,0.,0.));
#193=CARTESIAN_POINT('',(0.,7.22154329832427E-015,0.));
#194=CARTESIAN_POINT('',(4.99999999999999,7.22154329832427E-015,0.));
#195=CARTESIAN_POINT('',(0.,-1.18367130502375E-014,99.2));
#196=CARTESIAN_POINT('',(0.,4.99999999999998,99.2));
#197=CARTESIAN_POINT('',(0.,1.01033360929657E-014,-15.));
#198=CARTESIAN_POINT('',(0.,-1.19904086659517E-014,100.));
#199=CARTESIAN_POINT('',(0.,4.19999999999998,100.));
#200=CARTESIAN_POINT('',(0.,4.99999999999999,100.));
#201=CARTESIAN_POINT('',(0.,-1.19904086659517E-014,100.));
#202=CARTESIAN_POINT('',(0.,0.,0.));
#203=CARTESIAN_POINT('',(0.,1.01033360929657E-014,-15.));
#204=CARTESIAN_POINT('',(4.99999999999999,1.01033360929657E-014,-15.));
#205=CARTESIAN_POINT('',(0.,9.76996261670138E-015,-15.));
#206=CARTESIAN_POINT('',(0.,1.01033360929657E-014,-20.));
#207=CARTESIAN_POINT('',(4.99999999999999,1.01033360929657E-014,-20.));
#208=CARTESIAN_POINT('',(0.,1.01033360929657E-014,-25.));
#209=CARTESIAN_POINT('',(0.,1.01033360929657E-014,-20.));
#210=CARTESIAN_POINT('',(0.,7.22154329832427E-015,0.));
#211=CARTESIAN_POINT('',(4.99999999999999,7.22154329832427E-015,0.));
#212=CARTESIAN_POINT('',(0.,0.,0.));
#213=CARTESIAN_POINT('',(0.,1.01033360929657E-014,-15.));
#214=CARTESIAN_POINT('',(0.,-4.99999999999998,-15.));
#215=CARTESIAN_POINT('',(0.,9.76996261670138E-015,-15.));
#216=CARTESIAN_POINT('',(0.,1.01033360929657E-014,-15.));
#217=MECHANICAL_DESIGN_GEOMETRIC_PRESENTATION_REPRESENTATION('',(#27,#28,
#29),#218);
#218=(
GEOMETRIC_REPRESENTATION_CONTEXT(3)
GLOBAL_UNCERTAINTY_ASSIGNED_CONTEXT((#219))
GLOBAL_UNIT_ASSIGNED_CONTEXT((#225,#221,#220))
REPRESENTATION_CONTEXT('00039156','TOP_LEVEL_ASSEMBLY_PART')
);
#219=UNCERTAINTY_MEASURE_WITH_UNIT(LENGTH_MEASURE(2.E-005),#225,
'DISTANCE_ACCURACY_VALUE','Maximum Tolerance applied to model');
#220=(
NAMED_UNIT(*)
SI_UNIT($,.STERADIAN.)
SOLID_ANGLE_UNIT()
);
#221=(
CONVERSION_BASED_UNIT('DEGREE',#223)
NAMED_UNIT(#222)
PLANE_ANGLE_UNIT()
);
#222=DIMENSIONAL_EXPONENTS(0.,0.,0.,0.,0.,0.,0.);
#223=PLANE_ANGLE_MEASURE_WITH_UNIT(PLANE_ANGLE_MEASURE(0.0174532925),#224);
#224=(
NAMED_UNIT(*)
PLANE_ANGLE_UNIT()
SI_UNIT($,.RADIAN.)
);
#225=(
LENGTH_UNIT()
NAMED_UNIT(*)
SI_UNIT(.MILLI.,.METRE.)
);
ENDSEC;
END-ISO-10303-21;
