ISO-10303-21;
HEADER;
/* Generated by software containing ST-Developer
 * from STEP Tools, Inc. (www.steptools.com) 
 */
/* OPTION: using custom schema-name function */

FILE_DESCRIPTION(
/* description */ (''),
/* implementation_level */ '2;1');

FILE_NAME(
/* name */ '00039150.stp',
/* time_stamp */ '2012-03-01T13:09:51+06:00',
/* author */ (''),
/* organization */ (''),
/* preprocessor_version */ 'ST-DEVELOPER v11',
/* originating_system */ 'SIEMENS PLM Software NX 7.5',
/* authorisation */ '');

FILE_SCHEMA (('AUTOMOTIVE_DESIGN { 1 0 10303 214 1 1 1 1 }'));
ENDSEC;

DATA;
#10=SHAPE_REPRESENTATION_RELATIONSHIP('None',
'relationship between inpu6AA66rqv-None and inpu6AA66rqv-None',#22,#11);
#11=ADVANCED_BREP_SHAPE_REPRESENTATION('inpu6AA66rqv-None',(#50,#51,#52),
#258);
#12=SHAPE_DEFINITION_REPRESENTATION(#13,#22);
#13=PRODUCT_DEFINITION_SHAPE('','',#14);
#14=PRODUCT_DEFINITION(' ','',#16,#15);
#15=PRODUCT_DEFINITION_CONTEXT('part definition',#21,'design');
#16=PRODUCT_DEFINITION_FORMATION_WITH_SPECIFIED_SOURCE(' ',' ',#18,.NOT_KNOWN.);
#17=PRODUCT_RELATED_PRODUCT_CATEGORY('part','',(#18));
#18=PRODUCT('inpu6AA66rqv','inpu6AA66rqv',' ',(#19));
#19=PRODUCT_CONTEXT(' ',#21,'mechanical');
#20=APPLICATION_PROTOCOL_DEFINITION('international standard',
'automotive_design',2001,#21);
#21=APPLICATION_CONTEXT(
'core data for automotive mechanical design processes');
#22=SHAPE_REPRESENTATION('inpu6AA66rqv-None',(#160),#258);
#23=SPHERICAL_SURFACE('',#174,0.999999999999886);
#24=PRESENTATION_LAYER_ASSIGNMENT('3','Layer 3',(#50));
#25=PRESENTATION_LAYER_ASSIGNMENT('4','Layer 4',(#51));
#26=PRESENTATION_LAYER_ASSIGNMENT('1','Layer 1',(#52));
#27=STYLED_ITEM('',(#30),#50);
#28=STYLED_ITEM('',(#31),#51);
#29=STYLED_ITEM('',(#32),#52);
#30=PRESENTATION_STYLE_ASSIGNMENT((#33));
#31=PRESENTATION_STYLE_ASSIGNMENT((#34));
#32=PRESENTATION_STYLE_ASSIGNMENT((#35));
#33=SURFACE_STYLE_USAGE(.BOTH.,#36);
#34=SURFACE_STYLE_USAGE(.BOTH.,#37);
#35=SURFACE_STYLE_USAGE(.BOTH.,#38);
#36=SURFACE_SIDE_STYLE('',(#39));
#37=SURFACE_SIDE_STYLE('',(#40));
#38=SURFACE_SIDE_STYLE('',(#41));
#39=SURFACE_STYLE_FILL_AREA(#42);
#40=SURFACE_STYLE_FILL_AREA(#43);
#41=SURFACE_STYLE_FILL_AREA(#44);
#42=FILL_AREA_STYLE('',(#45));
#43=FILL_AREA_STYLE('',(#46));
#44=FILL_AREA_STYLE('',(#47));
#45=FILL_AREA_STYLE_COLOUR('',#48);
#46=FILL_AREA_STYLE_COLOUR('',#49);
#47=FILL_AREA_STYLE_COLOUR('',#48);
#48=COLOUR_RGB('Medium Gray',0.490196078431373,0.490196078431373,0.490196078431373);
#49=COLOUR_RGB('Light Gray',0.8,0.8,0.8);
#50=MANIFOLD_SOLID_BREP('',#53);
#51=MANIFOLD_SOLID_BREP('',#54);
#52=MANIFOLD_SOLID_BREP('',#55);
#53=CLOSED_SHELL('',(#69,#70,#71,#72,#73));
#54=CLOSED_SHELL('',(#74,#75,#76));
#55=CLOSED_SHELL('',(#77,#78,#79,#80));
#56=CONICAL_SURFACE('',#167,3.00000000000004,10.);
#57=CONICAL_SURFACE('',#178,2.49999999999999,45.);
#58=PLANE('',#165);
#59=PLANE('',#169);
#60=PLANE('',#171);
#61=PLANE('',#176);
#62=PLANE('',#181);
#63=FACE_OUTER_BOUND('',#99,.T.);
#64=FACE_OUTER_BOUND('',#104,.T.);
#65=FACE_OUTER_BOUND('',#105,.T.);
#66=FACE_OUTER_BOUND('',#108,.T.);
#67=FACE_OUTER_BOUND('',#109,.T.);
#68=FACE_OUTER_BOUND('',#114,.T.);
#69=ADVANCED_FACE('',(#85,#86),#81,.T.);
#70=ADVANCED_FACE('',(#63),#58,.T.);
#71=ADVANCED_FACE('',(#87,#88),#56,.T.);
#72=ADVANCED_FACE('',(#89,#90),#82,.T.);
#73=ADVANCED_FACE('',(#64),#59,.T.);
#74=ADVANCED_FACE('',(#65),#60,.T.);
#75=ADVANCED_FACE('',(#91,#92),#83,.T.);
#76=ADVANCED_FACE('',(#66),#23,.T.);
#77=ADVANCED_FACE('',(#67),#61,.T.);
#78=ADVANCED_FACE('',(#93,#94),#57,.T.);
#79=ADVANCED_FACE('',(#95,#96),#84,.T.);
#80=ADVANCED_FACE('',(#68),#62,.F.);
#81=CYLINDRICAL_SURFACE('',#163,3.00000000000004);
#82=CYLINDRICAL_SURFACE('',#168,0.950000000000102);
#83=CYLINDRICAL_SURFACE('',#173,0.999999999999985);
#84=CYLINDRICAL_SURFACE('',#180,3.00000000000004);
#85=FACE_BOUND('',#97,.T.);
#86=FACE_BOUND('',#98,.T.);
#87=FACE_BOUND('',#100,.T.);
#88=FACE_BOUND('',#101,.T.);
#89=FACE_BOUND('',#102,.T.);
#90=FACE_BOUND('',#103,.T.);
#91=FACE_BOUND('',#106,.T.);
#92=FACE_BOUND('',#107,.T.);
#93=FACE_BOUND('',#110,.T.);
#94=FACE_BOUND('',#111,.T.);
#95=FACE_BOUND('',#112,.T.);
#96=FACE_BOUND('',#113,.T.);
#97=EDGE_LOOP('',(#115));
#98=EDGE_LOOP('',(#116));
#99=EDGE_LOOP('',(#117));
#100=EDGE_LOOP('',(#118));
#101=EDGE_LOOP('',(#119));
#102=EDGE_LOOP('',(#120));
#103=EDGE_LOOP('',(#121));
#104=EDGE_LOOP('',(#122));
#105=EDGE_LOOP('',(#123));
#106=EDGE_LOOP('',(#124));
#107=EDGE_LOOP('',(#125));
#108=EDGE_LOOP('',(#126));
#109=EDGE_LOOP('',(#127));
#110=EDGE_LOOP('',(#128));
#111=EDGE_LOOP('',(#129));
#112=EDGE_LOOP('',(#130));
#113=EDGE_LOOP('',(#131));
#114=EDGE_LOOP('',(#132));
#115=ORIENTED_EDGE('',*,*,#142,.T.);
#116=ORIENTED_EDGE('',*,*,#143,.T.);
#117=ORIENTED_EDGE('',*,*,#144,.F.);
#118=ORIENTED_EDGE('',*,*,#145,.T.);
#119=ORIENTED_EDGE('',*,*,#142,.F.);
#120=ORIENTED_EDGE('',*,*,#144,.T.);
#121=ORIENTED_EDGE('',*,*,#145,.F.);
#122=ORIENTED_EDGE('',*,*,#143,.F.);
#123=ORIENTED_EDGE('',*,*,#146,.T.);
#124=ORIENTED_EDGE('',*,*,#147,.T.);
#125=ORIENTED_EDGE('',*,*,#146,.F.);
#126=ORIENTED_EDGE('',*,*,#147,.F.);
#127=ORIENTED_EDGE('',*,*,#148,.T.);
#128=ORIENTED_EDGE('',*,*,#149,.T.);
#129=ORIENTED_EDGE('',*,*,#148,.F.);
#130=ORIENTED_EDGE('',*,*,#150,.F.);
#131=ORIENTED_EDGE('',*,*,#149,.F.);
#132=ORIENTED_EDGE('',*,*,#150,.T.);
#133=VERTEX_POINT('',#228);
#134=VERTEX_POINT('',#230);
#135=VERTEX_POINT('',#233);
#136=VERTEX_POINT('',#236);
#137=VERTEX_POINT('',#241);
#138=VERTEX_POINT('',#244);
#139=VERTEX_POINT('',#248);
#140=VERTEX_POINT('',#251);
#141=VERTEX_POINT('',#254);
#142=EDGE_CURVE('',#133,#133,#151,.T.);
#143=EDGE_CURVE('',#134,#134,#152,.T.);
#144=EDGE_CURVE('',#135,#135,#153,.T.);
#145=EDGE_CURVE('',#136,#136,#154,.T.);
#146=EDGE_CURVE('',#137,#137,#155,.T.);
#147=EDGE_CURVE('',#138,#138,#156,.T.);
#148=EDGE_CURVE('',#139,#139,#157,.T.);
#149=EDGE_CURVE('',#140,#140,#158,.T.);
#150=EDGE_CURVE('',#141,#141,#159,.T.);
#151=CIRCLE('',#161,3.00000000000004);
#152=CIRCLE('',#162,3.00000000000004);
#153=CIRCLE('',#164,0.950000000000102);
#154=CIRCLE('',#166,0.950000000000101);
#155=CIRCLE('',#170,0.99999999999994);
#156=CIRCLE('',#172,1.00000000000003);
#157=CIRCLE('',#175,2.49999999999999);
#158=CIRCLE('',#177,2.99999999999999);
#159=CIRCLE('',#179,3.00000000000004);
#160=AXIS2_PLACEMENT_3D('',#226,#182,#183);
#161=AXIS2_PLACEMENT_3D('',#227,#184,#185);
#162=AXIS2_PLACEMENT_3D('',#229,#186,#187);
#163=AXIS2_PLACEMENT_3D('',#231,#188,#189);
#164=AXIS2_PLACEMENT_3D('',#232,#190,#191);
#165=AXIS2_PLACEMENT_3D('',#234,#192,#193);
#166=AXIS2_PLACEMENT_3D('',#235,#194,#195);
#167=AXIS2_PLACEMENT_3D('',#237,#196,#197);
#168=AXIS2_PLACEMENT_3D('',#238,#198,#199);
#169=AXIS2_PLACEMENT_3D('',#239,#200,#201);
#170=AXIS2_PLACEMENT_3D('',#240,#202,#203);
#171=AXIS2_PLACEMENT_3D('',#242,#204,#205);
#172=AXIS2_PLACEMENT_3D('',#243,#206,#207);
#173=AXIS2_PLACEMENT_3D('',#245,#208,#209);
#174=AXIS2_PLACEMENT_3D('',#246,#210,#211);
#175=AXIS2_PLACEMENT_3D('',#247,#212,#213);
#176=AXIS2_PLACEMENT_3D('',#249,#214,#215);
#177=AXIS2_PLACEMENT_3D('',#250,#216,#217);
#178=AXIS2_PLACEMENT_3D('',#252,#218,#219);
#179=AXIS2_PLACEMENT_3D('',#253,#220,#221);
#180=AXIS2_PLACEMENT_3D('',#255,#222,#223);
#181=AXIS2_PLACEMENT_3D('',#256,#224,#225);
#182=DIRECTION('',(0.,0.,1.));
#183=DIRECTION('',(1.,0.,0.));
#184=DIRECTION('',(0.,7.74309391533442E-016,1.));
#185=DIRECTION('',(0.,-1.,8.67361737988392E-016));
#186=DIRECTION('',(0.,0.,-1.));
#187=DIRECTION('',(1.,0.,0.));
#188=DIRECTION('',(0.,7.74309391533442E-016,1.));
#189=DIRECTION('',(0.,-1.,1.15648231731786E-015));
#190=DIRECTION('',(0.,7.74309391533442E-016,1.));
#191=DIRECTION('',(0.,-1.,0.));
#192=DIRECTION('',(0.,-7.74309391533442E-016,-1.));
#193=DIRECTION('',(0.,1.,-7.73686670285656E-016));
#194=DIRECTION('',(0.,7.74309391533442E-016,1.));
#195=DIRECTION('',(0.,-1.,0.));
#196=DIRECTION('',(0.,7.74309391533442E-016,1.));
#197=DIRECTION('',(0.,-1.,3.38573266662499E-016));
#198=DIRECTION('',(0.,7.74309391533442E-016,1.));
#199=DIRECTION('',(0.,-1.,0.));
#200=DIRECTION('',(0.,0.,1.));
#201=DIRECTION('',(1.,0.,0.));
#202=DIRECTION('',(0.,-3.01980662698043E-014,1.));
#203=DIRECTION('',(0.,-1.,-3.12250225675844E-014));
#204=DIRECTION('',(0.,-3.01980662698043E-014,1.));
#205=DIRECTION('',(0.,-1.,-3.01980662698043E-014));
#206=DIRECTION('',(0.,-3.01980662698043E-014,1.));
#207=DIRECTION('',(0.,-1.,-3.12250225675816E-014));
#208=DIRECTION('',(0.,-3.01980662698043E-014,1.));
#209=DIRECTION('',(0.,-1.,-3.1225022567583E-014));
#210=DIRECTION('',(0.,-3.01368339298469E-014,1.));
#211=DIRECTION('',(0.,1.,3.12250225675861E-014));
#212=DIRECTION('',(0.,7.74309391533442E-016,1.));
#213=DIRECTION('',(0.,-1.,0.));
#214=DIRECTION('',(0.,7.74309391533442E-016,1.));
#215=DIRECTION('',(0.,-1.,7.7715611723761E-016));
#216=DIRECTION('',(0.,7.74309391533442E-016,1.));
#217=DIRECTION('',(0.,-1.,0.));
#218=DIRECTION('',(0.,-7.74309391533442E-016,-1.));
#219=DIRECTION('',(0.,1.,-7.33688532482959E-016));
#220=DIRECTION('',(0.,0.,-1.));
#221=DIRECTION('',(1.,0.,0.));
#222=DIRECTION('',(0.,7.74309391533442E-016,1.));
#223=DIRECTION('',(0.,-1.,1.15648231731786E-015));
#224=DIRECTION('',(0.,0.,1.));
#225=DIRECTION('',(1.,0.,0.));
#226=CARTESIAN_POINT('',(0.,0.,0.));
#227=CARTESIAN_POINT('',(0.,-1.07302364661068E-016,-6.37387226978409));
#228=CARTESIAN_POINT('',(0.,-3.00000000000004,-6.37387226978409));
#229=CARTESIAN_POINT('',(0.,4.82804679426733E-015,0.));
#230=CARTESIAN_POINT('',(3.00000000000004,4.82804679426733E-015,0.));
#231=CARTESIAN_POINT('',(0.,-1.06581410364015E-014,-20.));
#232=CARTESIAN_POINT('',(0.,-1.06581410364014E-014,-19.9999999999999));
#233=CARTESIAN_POINT('',(0.,-0.950000000000113,-19.9999999999999));
#234=CARTESIAN_POINT('',(0.,0.950000000000092,-19.9999999999999));
#235=CARTESIAN_POINT('',(0.,-9.10952225333462E-015,-18.));
#236=CARTESIAN_POINT('',(0.,-0.95000000000011,-18.));
#237=CARTESIAN_POINT('',(0.,-1.07302364661068E-016,-6.37387226978409));
#238=CARTESIAN_POINT('',(0.,-1.06581410364015E-014,-20.));
#239=CARTESIAN_POINT('',(0.,0.,0.));
#240=CARTESIAN_POINT('',(0.,-1.06581410364005E-014,-20.));
#241=CARTESIAN_POINT('',(0.,-0.99999999999995,-20.0000000000001));
#242=CARTESIAN_POINT('',(0.,-1.0658141036401E-014,-20.));
#243=CARTESIAN_POINT('',(0.,1.95399252334101E-014,-21.0000000000002));
#244=CARTESIAN_POINT('',(0.,-1.00000000000001,-21.0000000000003));
#245=CARTESIAN_POINT('',(0.,4.9737991503207E-014,-22.));
#246=CARTESIAN_POINT('',(0.,4.9737991503207E-014,-21.0000000000001));
#247=CARTESIAN_POINT('',(0.,4.97379915032071E-014,58.0000000000001));
#248=CARTESIAN_POINT('',(0.,-2.49999999999994,58.0000000000001));
#249=CARTESIAN_POINT('',(0.,4.9737991503207E-014,58.0000000000001));
#250=CARTESIAN_POINT('',(0.,4.93508368074403E-014,57.5000000000001));
#251=CARTESIAN_POINT('',(0.,-2.99999999999994,57.5000000000001));
#252=CARTESIAN_POINT('',(0.,4.97379915032071E-014,58.0000000000001));
#253=CARTESIAN_POINT('',(0.,4.82804679426733E-015,0.));
#254=CARTESIAN_POINT('',(3.00000000000004,4.82804679426733E-015,0.));
#255=CARTESIAN_POINT('',(0.,-1.06581410364015E-014,-20.));
#256=CARTESIAN_POINT('',(0.,0.,0.));
#257=MECHANICAL_DESIGN_GEOMETRIC_PRESENTATION_REPRESENTATION('',(#27,#28,
#29),#258);
#258=(
GEOMETRIC_REPRESENTATION_CONTEXT(3)
GLOBAL_UNCERTAINTY_ASSIGNED_CONTEXT((#259))
GLOBAL_UNIT_ASSIGNED_CONTEXT((#265,#261,#260))
REPRESENTATION_CONTEXT('00039150','TOP_LEVEL_ASSEMBLY_PART')
);
#259=UNCERTAINTY_MEASURE_WITH_UNIT(LENGTH_MEASURE(2.E-005),#265,
'DISTANCE_ACCURACY_VALUE','Maximum Tolerance applied to model');
#260=(
NAMED_UNIT(*)
SI_UNIT($,.STERADIAN.)
SOLID_ANGLE_UNIT()
);
#261=(
CONVERSION_BASED_UNIT('DEGREE',#263)
NAMED_UNIT(#262)
PLANE_ANGLE_UNIT()
);
#262=DIMENSIONAL_EXPONENTS(0.,0.,0.,0.,0.,0.,0.);
#263=PLANE_ANGLE_MEASURE_WITH_UNIT(PLANE_ANGLE_MEASURE(0.0174532925),#264);
#264=(
NAMED_UNIT(*)
PLANE_ANGLE_UNIT()
SI_UNIT($,.RADIAN.)
);
#265=(
LENGTH_UNIT()
NAMED_UNIT(*)
SI_UNIT(.MILLI.,.METRE.)
);
ENDSEC;
END-ISO-10303-21;
