ISO-10303-21;
HEADER;
/* Generated by software containing ST-Developer
 * from STEP Tools, Inc. (www.steptools.com) 
 */
/* OPTION: using custom schema-name function */

FILE_DESCRIPTION(
/* description */ (''),
/* implementation_level */ '2;1');

FILE_NAME(
/* name */ '00039143.stp',
/* time_stamp */ '2012-03-01T13:03:36+06:00',
/* author */ (''),
/* organization */ (''),
/* preprocessor_version */ 'ST-DEVELOPER v11',
/* originating_system */ 'SIEMENS PLM Software NX 7.5',
/* authorisation */ '');

FILE_SCHEMA (('AUTOMOTIVE_DESIGN { 1 0 10303 214 1 1 1 1 }'));
ENDSEC;

DATA;
#10=SHAPE_REPRESENTATION_RELATIONSHIP('None',
'relationship between inpu6AA66rpm-None and inpu6AA66rpm-None',#22,#11);
#11=ADVANCED_BREP_SHAPE_REPRESENTATION('inpu6AA66rpm-None',(#58,#59,#60,
#61),#274);
#12=SHAPE_DEFINITION_REPRESENTATION(#13,#22);
#13=PRODUCT_DEFINITION_SHAPE('','',#14);
#14=PRODUCT_DEFINITION(' ','',#16,#15);
#15=PRODUCT_DEFINITION_CONTEXT('part definition',#21,'design');
#16=PRODUCT_DEFINITION_FORMATION_WITH_SPECIFIED_SOURCE(' ',' ',#18,.NOT_KNOWN.);
#17=PRODUCT_RELATED_PRODUCT_CATEGORY('part','',(#18));
#18=PRODUCT('inpu6AA66rpm','inpu6AA66rpm',' ',(#19));
#19=PRODUCT_CONTEXT(' ',#21,'mechanical');
#20=APPLICATION_PROTOCOL_DEFINITION('international standard',
'automotive_design',2001,#21);
#21=APPLICATION_CONTEXT(
'core data for automotive mechanical design processes');
#22=SHAPE_REPRESENTATION('inpu6AA66rpm-None',(#172),#274);
#23=SPHERICAL_SURFACE('',#184,2.);
#24=PRESENTATION_LAYER_ASSIGNMENT('1','Layer 1',(#58));
#25=PRESENTATION_LAYER_ASSIGNMENT('4','Layer 4',(#59));
#26=PRESENTATION_LAYER_ASSIGNMENT('3','Layer 3',(#60));
#27=PRESENTATION_LAYER_ASSIGNMENT('2','Layer 2',(#61));
#28=STYLED_ITEM('',(#32),#58);
#29=STYLED_ITEM('',(#33),#59);
#30=STYLED_ITEM('',(#34),#60);
#31=STYLED_ITEM('',(#35),#61);
#32=PRESENTATION_STYLE_ASSIGNMENT((#36));
#33=PRESENTATION_STYLE_ASSIGNMENT((#37));
#34=PRESENTATION_STYLE_ASSIGNMENT((#38));
#35=PRESENTATION_STYLE_ASSIGNMENT((#39));
#36=SURFACE_STYLE_USAGE(.BOTH.,#40);
#37=SURFACE_STYLE_USAGE(.BOTH.,#41);
#38=SURFACE_STYLE_USAGE(.BOTH.,#42);
#39=SURFACE_STYLE_USAGE(.BOTH.,#43);
#40=SURFACE_SIDE_STYLE('',(#44));
#41=SURFACE_SIDE_STYLE('',(#45));
#42=SURFACE_SIDE_STYLE('',(#46));
#43=SURFACE_SIDE_STYLE('',(#47));
#44=SURFACE_STYLE_FILL_AREA(#48);
#45=SURFACE_STYLE_FILL_AREA(#49);
#46=SURFACE_STYLE_FILL_AREA(#50);
#47=SURFACE_STYLE_FILL_AREA(#51);
#48=FILL_AREA_STYLE('',(#52));
#49=FILL_AREA_STYLE('',(#53));
#50=FILL_AREA_STYLE('',(#54));
#51=FILL_AREA_STYLE('',(#55));
#52=FILL_AREA_STYLE_COLOUR('',#56);
#53=FILL_AREA_STYLE_COLOUR('',#57);
#54=FILL_AREA_STYLE_COLOUR('',#56);
#55=FILL_AREA_STYLE_COLOUR('',#56);
#56=COLOUR_RGB('Medium Gray',0.490196078431373,0.490196078431373,0.490196078431373);
#57=COLOUR_RGB('Light Gray',0.8,0.8,0.8);
#58=MANIFOLD_SOLID_BREP('',#62);
#59=MANIFOLD_SOLID_BREP('',#63);
#60=MANIFOLD_SOLID_BREP('',#64);
#61=MANIFOLD_SOLID_BREP('',#65);
#62=CLOSED_SHELL('',(#82,#83,#84,#85));
#63=CLOSED_SHELL('',(#86,#87,#88));
#64=CLOSED_SHELL('',(#89,#90,#91));
#65=CLOSED_SHELL('',(#92,#93,#94));
#66=CONICAL_SURFACE('',#178,1.5,45.);
#67=PLANE('',#177);
#68=PLANE('',#179);
#69=PLANE('',#181);
#70=PLANE('',#186);
#71=PLANE('',#189);
#72=PLANE('',#193);
#73=PLANE('',#194);
#74=FACE_OUTER_BOUND('',#111,.T.);
#75=FACE_OUTER_BOUND('',#114,.T.);
#76=FACE_OUTER_BOUND('',#115,.T.);
#77=FACE_OUTER_BOUND('',#118,.T.);
#78=FACE_OUTER_BOUND('',#119,.T.);
#79=FACE_OUTER_BOUND('',#122,.T.);
#80=FACE_OUTER_BOUND('',#125,.T.);
#81=FACE_OUTER_BOUND('',#126,.T.);
#82=ADVANCED_FACE('',(#99,#100),#95,.T.);
#83=ADVANCED_FACE('',(#74),#67,.F.);
#84=ADVANCED_FACE('',(#101,#102),#66,.T.);
#85=ADVANCED_FACE('',(#75),#68,.F.);
#86=ADVANCED_FACE('',(#76),#69,.T.);
#87=ADVANCED_FACE('',(#103,#104),#96,.T.);
#88=ADVANCED_FACE('',(#77),#23,.T.);
#89=ADVANCED_FACE('',(#78),#70,.F.);
#90=ADVANCED_FACE('',(#105,#106),#97,.T.);
#91=ADVANCED_FACE('',(#79),#71,.F.);
#92=ADVANCED_FACE('',(#107,#108),#98,.T.);
#93=ADVANCED_FACE('',(#80),#72,.T.);
#94=ADVANCED_FACE('',(#81),#73,.T.);
#95=CYLINDRICAL_SURFACE('',#175,2.);
#96=CYLINDRICAL_SURFACE('',#183,1.99999999999999);
#97=CYLINDRICAL_SURFACE('',#188,2.);
#98=CYLINDRICAL_SURFACE('',#192,2.);
#99=FACE_BOUND('',#109,.T.);
#100=FACE_BOUND('',#110,.T.);
#101=FACE_BOUND('',#112,.T.);
#102=FACE_BOUND('',#113,.T.);
#103=FACE_BOUND('',#116,.T.);
#104=FACE_BOUND('',#117,.T.);
#105=FACE_BOUND('',#120,.T.);
#106=FACE_BOUND('',#121,.T.);
#107=FACE_BOUND('',#123,.T.);
#108=FACE_BOUND('',#124,.T.);
#109=EDGE_LOOP('',(#127));
#110=EDGE_LOOP('',(#128));
#111=EDGE_LOOP('',(#129));
#112=EDGE_LOOP('',(#130));
#113=EDGE_LOOP('',(#131));
#114=EDGE_LOOP('',(#132));
#115=EDGE_LOOP('',(#133));
#116=EDGE_LOOP('',(#134));
#117=EDGE_LOOP('',(#135));
#118=EDGE_LOOP('',(#136));
#119=EDGE_LOOP('',(#137));
#120=EDGE_LOOP('',(#138));
#121=EDGE_LOOP('',(#139));
#122=EDGE_LOOP('',(#140));
#123=EDGE_LOOP('',(#141));
#124=EDGE_LOOP('',(#142));
#125=EDGE_LOOP('',(#143));
#126=EDGE_LOOP('',(#144));
#127=ORIENTED_EDGE('',*,*,#154,.T.);
#128=ORIENTED_EDGE('',*,*,#155,.T.);
#129=ORIENTED_EDGE('',*,*,#156,.T.);
#130=ORIENTED_EDGE('',*,*,#155,.F.);
#131=ORIENTED_EDGE('',*,*,#156,.F.);
#132=ORIENTED_EDGE('',*,*,#154,.F.);
#133=ORIENTED_EDGE('',*,*,#157,.T.);
#134=ORIENTED_EDGE('',*,*,#158,.T.);
#135=ORIENTED_EDGE('',*,*,#157,.F.);
#136=ORIENTED_EDGE('',*,*,#158,.F.);
#137=ORIENTED_EDGE('',*,*,#159,.F.);
#138=ORIENTED_EDGE('',*,*,#160,.T.);
#139=ORIENTED_EDGE('',*,*,#159,.T.);
#140=ORIENTED_EDGE('',*,*,#160,.F.);
#141=ORIENTED_EDGE('',*,*,#161,.F.);
#142=ORIENTED_EDGE('',*,*,#162,.F.);
#143=ORIENTED_EDGE('',*,*,#161,.T.);
#144=ORIENTED_EDGE('',*,*,#162,.T.);
#145=VERTEX_POINT('',#243);
#146=VERTEX_POINT('',#245);
#147=VERTEX_POINT('',#248);
#148=VERTEX_POINT('',#253);
#149=VERTEX_POINT('',#256);
#150=VERTEX_POINT('',#260);
#151=VERTEX_POINT('',#263);
#152=VERTEX_POINT('',#267);
#153=VERTEX_POINT('',#269);
#154=EDGE_CURVE('',#145,#145,#163,.T.);
#155=EDGE_CURVE('',#146,#146,#164,.T.);
#156=EDGE_CURVE('',#147,#147,#165,.T.);
#157=EDGE_CURVE('',#148,#148,#166,.T.);
#158=EDGE_CURVE('',#149,#149,#167,.T.);
#159=EDGE_CURVE('',#150,#150,#168,.T.);
#160=EDGE_CURVE('',#151,#151,#169,.T.);
#161=EDGE_CURVE('',#152,#152,#170,.T.);
#162=EDGE_CURVE('',#153,#153,#171,.T.);
#163=CIRCLE('',#173,2.);
#164=CIRCLE('',#174,2.);
#165=CIRCLE('',#176,1.5);
#166=CIRCLE('',#180,1.99999999999999);
#167=CIRCLE('',#182,1.99999999999999);
#168=CIRCLE('',#185,1.99999999999999);
#169=CIRCLE('',#187,2.);
#170=CIRCLE('',#190,2.);
#171=CIRCLE('',#191,2.);
#172=AXIS2_PLACEMENT_3D('',#241,#195,#196);
#173=AXIS2_PLACEMENT_3D('',#242,#197,#198);
#174=AXIS2_PLACEMENT_3D('',#244,#199,#200);
#175=AXIS2_PLACEMENT_3D('',#246,#201,#202);
#176=AXIS2_PLACEMENT_3D('',#247,#203,#204);
#177=AXIS2_PLACEMENT_3D('',#249,#205,#206);
#178=AXIS2_PLACEMENT_3D('',#250,#207,#208);
#179=AXIS2_PLACEMENT_3D('',#251,#209,#210);
#180=AXIS2_PLACEMENT_3D('',#252,#211,#212);
#181=AXIS2_PLACEMENT_3D('',#254,#213,#214);
#182=AXIS2_PLACEMENT_3D('',#255,#215,#216);
#183=AXIS2_PLACEMENT_3D('',#257,#217,#218);
#184=AXIS2_PLACEMENT_3D('',#258,#219,#220);
#185=AXIS2_PLACEMENT_3D('',#259,#221,#222);
#186=AXIS2_PLACEMENT_3D('',#261,#223,#224);
#187=AXIS2_PLACEMENT_3D('',#262,#225,#226);
#188=AXIS2_PLACEMENT_3D('',#264,#227,#228);
#189=AXIS2_PLACEMENT_3D('',#265,#229,#230);
#190=AXIS2_PLACEMENT_3D('',#266,#231,#232);
#191=AXIS2_PLACEMENT_3D('',#268,#233,#234);
#192=AXIS2_PLACEMENT_3D('',#270,#235,#236);
#193=AXIS2_PLACEMENT_3D('',#271,#237,#238);
#194=AXIS2_PLACEMENT_3D('',#272,#239,#240);
#195=DIRECTION('',(0.,0.,1.));
#196=DIRECTION('',(1.,0.,0.));
#197=DIRECTION('',(0.,0.,1.));
#198=DIRECTION('',(1.,0.,0.));
#199=DIRECTION('',(0.,2.25412013776185E-016,-1.));
#200=DIRECTION('',(0.,1.,0.));
#201=DIRECTION('',(0.,-2.25412013776186E-016,1.));
#202=DIRECTION('',(0.,-1.,0.));
#203=DIRECTION('',(0.,-2.25412013776186E-016,1.));
#204=DIRECTION('',(0.,1.,0.));
#205=DIRECTION('',(0.,2.25412013776186E-016,-1.));
#206=DIRECTION('',(0.,1.,2.25514051876985E-016));
#207=DIRECTION('',(0.,2.25412013776185E-016,-1.));
#208=DIRECTION('',(0.,1.,2.42497540326264E-016));
#209=DIRECTION('',(0.,0.,1.));
#210=DIRECTION('',(1.,0.,0.));
#211=DIRECTION('',(0.,0.,1.));
#212=DIRECTION('',(1.,0.,0.));
#213=DIRECTION('',(0.,0.,1.));
#214=DIRECTION('',(1.,0.,0.));
#215=DIRECTION('',(0.,0.,1.));
#216=DIRECTION('',(1.,0.,0.));
#217=DIRECTION('',(0.,0.,1.));
#218=DIRECTION('',(1.,0.,0.));
#219=DIRECTION('',(6.12323399573677E-017,0.,1.));
#220=DIRECTION('',(1.,0.,0.));
#221=DIRECTION('',(0.,-2.25412013776186E-016,1.));
#222=DIRECTION('',(0.,-1.,0.));
#223=DIRECTION('',(0.,-2.25412013776186E-016,1.));
#224=DIRECTION('',(0.,-1.,-2.25514051876985E-016));
#225=DIRECTION('',(0.,2.25412013776186E-016,-1.));
#226=DIRECTION('',(0.,1.,2.16840434497101E-016));
#227=DIRECTION('',(0.,-2.25412013776186E-016,1.));
#228=DIRECTION('',(0.,-1.,0.));
#229=DIRECTION('',(0.,2.25412013776186E-016,-1.));
#230=DIRECTION('',(0.,1.,2.25514051876985E-016));
#231=DIRECTION('',(0.,0.,1.));
#232=DIRECTION('',(1.,0.,0.));
#233=DIRECTION('',(0.,2.25412013776186E-016,-1.));
#234=DIRECTION('',(0.,1.,2.16840434497101E-016));
#235=DIRECTION('',(0.,-2.25412013776186E-016,1.));
#236=DIRECTION('',(0.,-1.,0.));
#237=DIRECTION('',(0.,0.,1.));
#238=DIRECTION('',(1.,0.,0.));
#239=DIRECTION('',(0.,2.25412013776186E-016,-1.));
#240=DIRECTION('',(0.,1.,2.25514051876985E-016));
#241=CARTESIAN_POINT('',(0.,0.,0.));
#242=CARTESIAN_POINT('',(0.,1.4198202596802E-015,0.));
#243=CARTESIAN_POINT('',(2.,1.4198202596802E-015,0.));
#244=CARTESIAN_POINT('',(0.,-4.32818609161253E-015,25.5));
#245=CARTESIAN_POINT('',(0.,1.99999999999999,25.5));
#246=CARTESIAN_POINT('',(0.,3.67394039744206E-015,-10.));
#247=CARTESIAN_POINT('',(0.,-4.44089209850063E-015,26.));
#248=CARTESIAN_POINT('',(0.,1.49999999999999,26.));
#249=CARTESIAN_POINT('',(0.,2.,26.));
#250=CARTESIAN_POINT('',(0.,-4.44089209850063E-015,26.));
#251=CARTESIAN_POINT('',(0.,0.,0.));
#252=CARTESIAN_POINT('',(0.,3.67394039744206E-015,-10.));
#253=CARTESIAN_POINT('',(1.99999999999999,3.67394039744206E-015,-10.));
#254=CARTESIAN_POINT('',(0.,3.77475828372553E-015,-10.));
#255=CARTESIAN_POINT('',(0.,3.67394039744206E-015,-12.));
#256=CARTESIAN_POINT('',(1.99999999999999,3.67394039744206E-015,-12.));
#257=CARTESIAN_POINT('',(0.,3.67394039744206E-015,-14.));
#258=CARTESIAN_POINT('',(0.,3.67394039744206E-015,-12.));
#259=CARTESIAN_POINT('',(0.,3.67394039744206E-015,-10.));
#260=CARTESIAN_POINT('',(0.,-1.99999999999999,-10.));
#261=CARTESIAN_POINT('',(0.,3.77475828372553E-015,-10.));
#262=CARTESIAN_POINT('',(0.,1.87064428723257E-015,-2.));
#263=CARTESIAN_POINT('',(0.,2.,-2.));
#264=CARTESIAN_POINT('',(0.,3.67394039744206E-015,-10.));
#265=CARTESIAN_POINT('',(0.,1.98166658969509E-015,-2.));
#266=CARTESIAN_POINT('',(0.,1.4198202596802E-015,0.));
#267=CARTESIAN_POINT('',(2.,1.4198202596802E-015,0.));
#268=CARTESIAN_POINT('',(0.,1.87064428723257E-015,-2.));
#269=CARTESIAN_POINT('',(0.,2.,-2.));
#270=CARTESIAN_POINT('',(0.,3.67394039744206E-015,-10.));
#271=CARTESIAN_POINT('',(0.,0.,0.));
#272=CARTESIAN_POINT('',(0.,1.98166658969509E-015,-2.));
#273=MECHANICAL_DESIGN_GEOMETRIC_PRESENTATION_REPRESENTATION('',(#28,#29,
#30,#31),#274);
#274=(
GEOMETRIC_REPRESENTATION_CONTEXT(3)
GLOBAL_UNCERTAINTY_ASSIGNED_CONTEXT((#275))
GLOBAL_UNIT_ASSIGNED_CONTEXT((#281,#277,#276))
REPRESENTATION_CONTEXT('00039143','TOP_LEVEL_ASSEMBLY_PART')
);
#275=UNCERTAINTY_MEASURE_WITH_UNIT(LENGTH_MEASURE(2.E-005),#281,
'DISTANCE_ACCURACY_VALUE','Maximum Tolerance applied to model');
#276=(
NAMED_UNIT(*)
SI_UNIT($,.STERADIAN.)
SOLID_ANGLE_UNIT()
);
#277=(
CONVERSION_BASED_UNIT('DEGREE',#279)
NAMED_UNIT(#278)
PLANE_ANGLE_UNIT()
);
#278=DIMENSIONAL_EXPONENTS(0.,0.,0.,0.,0.,0.,0.);
#279=PLANE_ANGLE_MEASURE_WITH_UNIT(PLANE_ANGLE_MEASURE(0.0174532925),#280);
#280=(
NAMED_UNIT(*)
PLANE_ANGLE_UNIT()
SI_UNIT($,.RADIAN.)
);
#281=(
LENGTH_UNIT()
NAMED_UNIT(*)
SI_UNIT(.MILLI.,.METRE.)
);
ENDSEC;
END-ISO-10303-21;
