ISO-10303-21;
HEADER;
/* Generated by software containing ST-Developer
 * from STEP Tools, Inc. (www.steptools.com) 
 */
/* OPTION: using custom schema-name function */

FILE_DESCRIPTION(
/* description */ (''),
/* implementation_level */ '2;1');

FILE_NAME(
/* name */ '00039142.stp',
/* time_stamp */ '2012-03-01T13:02:26+06:00',
/* author */ (''),
/* organization */ (''),
/* preprocessor_version */ 'ST-DEVELOPER v11',
/* originating_system */ 'SIEMENS PLM Software NX 7.5',
/* authorisation */ '');

FILE_SCHEMA (('AUTOMOTIVE_DESIGN { 1 0 10303 214 1 1 1 1 }'));
ENDSEC;

DATA;
#10=SHAPE_REPRESENTATION_RELATIONSHIP('None',
'relationship between inpu6AA66rpd-None and inpu6AA66rpd-None',#22,#11);
#11=ADVANCED_BREP_SHAPE_REPRESENTATION('inpu6AA66rpd-None',(#58,#59,#60,
#61),#314);
#12=SHAPE_DEFINITION_REPRESENTATION(#13,#22);
#13=PRODUCT_DEFINITION_SHAPE('','',#14);
#14=PRODUCT_DEFINITION(' ','',#16,#15);
#15=PRODUCT_DEFINITION_CONTEXT('part definition',#21,'design');
#16=PRODUCT_DEFINITION_FORMATION_WITH_SPECIFIED_SOURCE(' ',' ',#18,.NOT_KNOWN.);
#17=PRODUCT_RELATED_PRODUCT_CATEGORY('part','',(#18));
#18=PRODUCT('inpu6AA66rpd','inpu6AA66rpd',' ',(#19));
#19=PRODUCT_CONTEXT(' ',#21,'mechanical');
#20=APPLICATION_PROTOCOL_DEFINITION('international standard',
'automotive_design',2001,#21);
#21=APPLICATION_CONTEXT(
'core data for automotive mechanical design processes');
#22=SHAPE_REPRESENTATION('inpu6AA66rpd-None',(#194),#314);
#23=SPHERICAL_SURFACE('',#205,1.5);
#24=PRESENTATION_LAYER_ASSIGNMENT('3','Layer 3',(#58));
#25=PRESENTATION_LAYER_ASSIGNMENT('4','Layer 4',(#59));
#26=PRESENTATION_LAYER_ASSIGNMENT('1','Layer 1',(#60));
#27=PRESENTATION_LAYER_ASSIGNMENT('2','Layer 2',(#61));
#28=STYLED_ITEM('',(#32),#58);
#29=STYLED_ITEM('',(#33),#59);
#30=STYLED_ITEM('',(#34),#60);
#31=STYLED_ITEM('',(#35),#61);
#32=PRESENTATION_STYLE_ASSIGNMENT((#36));
#33=PRESENTATION_STYLE_ASSIGNMENT((#37));
#34=PRESENTATION_STYLE_ASSIGNMENT((#38));
#35=PRESENTATION_STYLE_ASSIGNMENT((#39));
#36=SURFACE_STYLE_USAGE(.BOTH.,#40);
#37=SURFACE_STYLE_USAGE(.BOTH.,#41);
#38=SURFACE_STYLE_USAGE(.BOTH.,#42);
#39=SURFACE_STYLE_USAGE(.BOTH.,#43);
#40=SURFACE_SIDE_STYLE('',(#44));
#41=SURFACE_SIDE_STYLE('',(#45));
#42=SURFACE_SIDE_STYLE('',(#46));
#43=SURFACE_SIDE_STYLE('',(#47));
#44=SURFACE_STYLE_FILL_AREA(#48);
#45=SURFACE_STYLE_FILL_AREA(#49);
#46=SURFACE_STYLE_FILL_AREA(#50);
#47=SURFACE_STYLE_FILL_AREA(#51);
#48=FILL_AREA_STYLE('',(#52));
#49=FILL_AREA_STYLE('',(#53));
#50=FILL_AREA_STYLE('',(#54));
#51=FILL_AREA_STYLE('',(#55));
#52=FILL_AREA_STYLE_COLOUR('',#56);
#53=FILL_AREA_STYLE_COLOUR('',#57);
#54=FILL_AREA_STYLE_COLOUR('',#56);
#55=FILL_AREA_STYLE_COLOUR('',#56);
#56=COLOUR_RGB('Medium Gray',0.490196078431373,0.490196078431373,0.490196078431373);
#57=COLOUR_RGB('Light Gray',0.8,0.8,0.8);
#58=MANIFOLD_SOLID_BREP('',#62);
#59=MANIFOLD_SOLID_BREP('',#63);
#60=MANIFOLD_SOLID_BREP('',#64);
#61=MANIFOLD_SOLID_BREP('',#65);
#62=CLOSED_SHELL('',(#83,#84,#85,#86,#87));
#63=CLOSED_SHELL('',(#88,#89,#90));
#64=CLOSED_SHELL('',(#91,#92,#93,#94));
#65=CLOSED_SHELL('',(#95,#96,#97));
#66=CONICAL_SURFACE('',#201,2.00000000000001,7.50000000000073);
#67=CONICAL_SURFACE('',#212,1.5,45.0000000000006);
#68=PLANE('',#199);
#69=PLANE('',#203);
#70=PLANE('',#208);
#71=PLANE('',#210);
#72=PLANE('',#215);
#73=PLANE('',#217);
#74=PLANE('',#219);
#75=FACE_OUTER_BOUND('',#119,.T.);
#76=FACE_OUTER_BOUND('',#124,.T.);
#77=FACE_OUTER_BOUND('',#125,.T.);
#78=FACE_OUTER_BOUND('',#128,.T.);
#79=FACE_OUTER_BOUND('',#129,.T.);
#80=FACE_OUTER_BOUND('',#134,.T.);
#81=FACE_OUTER_BOUND('',#135,.T.);
#82=FACE_OUTER_BOUND('',#136,.T.);
#83=ADVANCED_FACE('',(#103,#104),#98,.T.);
#84=ADVANCED_FACE('',(#75),#68,.T.);
#85=ADVANCED_FACE('',(#105,#106),#66,.T.);
#86=ADVANCED_FACE('',(#107,#108),#99,.T.);
#87=ADVANCED_FACE('',(#76),#69,.F.);
#88=ADVANCED_FACE('',(#77),#23,.T.);
#89=ADVANCED_FACE('',(#109,#110),#100,.T.);
#90=ADVANCED_FACE('',(#78),#70,.F.);
#91=ADVANCED_FACE('',(#79),#71,.T.);
#92=ADVANCED_FACE('',(#111,#112),#67,.T.);
#93=ADVANCED_FACE('',(#113,#114),#101,.T.);
#94=ADVANCED_FACE('',(#80),#72,.F.);
#95=ADVANCED_FACE('',(#81),#73,.T.);
#96=ADVANCED_FACE('',(#82),#74,.T.);
#97=ADVANCED_FACE('',(#115,#116),#102,.T.);
#98=CYLINDRICAL_SURFACE('',#197,2.00000000000001);
#99=CYLINDRICAL_SURFACE('',#202,1.45000000000005);
#100=CYLINDRICAL_SURFACE('',#207,1.5);
#101=CYLINDRICAL_SURFACE('',#214,2.00000000000001);
#102=CYLINDRICAL_SURFACE('',#220,2.00000000000001);
#103=FACE_BOUND('',#117,.T.);
#104=FACE_BOUND('',#118,.T.);
#105=FACE_BOUND('',#120,.T.);
#106=FACE_BOUND('',#121,.T.);
#107=FACE_BOUND('',#122,.T.);
#108=FACE_BOUND('',#123,.T.);
#109=FACE_BOUND('',#126,.T.);
#110=FACE_BOUND('',#127,.T.);
#111=FACE_BOUND('',#130,.T.);
#112=FACE_BOUND('',#131,.T.);
#113=FACE_BOUND('',#132,.T.);
#114=FACE_BOUND('',#133,.T.);
#115=FACE_BOUND('',#137,.T.);
#116=FACE_BOUND('',#138,.T.);
#117=EDGE_LOOP('',(#139));
#118=EDGE_LOOP('',(#140));
#119=EDGE_LOOP('',(#141));
#120=EDGE_LOOP('',(#142));
#121=EDGE_LOOP('',(#143));
#122=EDGE_LOOP('',(#144));
#123=EDGE_LOOP('',(#145));
#124=EDGE_LOOP('',(#146));
#125=EDGE_LOOP('',(#147));
#126=EDGE_LOOP('',(#148));
#127=EDGE_LOOP('',(#149));
#128=EDGE_LOOP('',(#150));
#129=EDGE_LOOP('',(#151));
#130=EDGE_LOOP('',(#152));
#131=EDGE_LOOP('',(#153));
#132=EDGE_LOOP('',(#154));
#133=EDGE_LOOP('',(#155));
#134=EDGE_LOOP('',(#156));
#135=EDGE_LOOP('',(#157));
#136=EDGE_LOOP('',(#158));
#137=EDGE_LOOP('',(#159));
#138=EDGE_LOOP('',(#160));
#139=ORIENTED_EDGE('',*,*,#172,.F.);
#140=ORIENTED_EDGE('',*,*,#173,.T.);
#141=ORIENTED_EDGE('',*,*,#174,.F.);
#142=ORIENTED_EDGE('',*,*,#175,.T.);
#143=ORIENTED_EDGE('',*,*,#173,.F.);
#144=ORIENTED_EDGE('',*,*,#174,.T.);
#145=ORIENTED_EDGE('',*,*,#175,.F.);
#146=ORIENTED_EDGE('',*,*,#172,.T.);
#147=ORIENTED_EDGE('',*,*,#176,.F.);
#148=ORIENTED_EDGE('',*,*,#177,.F.);
#149=ORIENTED_EDGE('',*,*,#176,.T.);
#150=ORIENTED_EDGE('',*,*,#177,.T.);
#151=ORIENTED_EDGE('',*,*,#178,.T.);
#152=ORIENTED_EDGE('',*,*,#179,.T.);
#153=ORIENTED_EDGE('',*,*,#178,.F.);
#154=ORIENTED_EDGE('',*,*,#180,.F.);
#155=ORIENTED_EDGE('',*,*,#179,.F.);
#156=ORIENTED_EDGE('',*,*,#180,.T.);
#157=ORIENTED_EDGE('',*,*,#181,.F.);
#158=ORIENTED_EDGE('',*,*,#182,.F.);
#159=ORIENTED_EDGE('',*,*,#182,.T.);
#160=ORIENTED_EDGE('',*,*,#181,.T.);
#161=VERTEX_POINT('',#277);
#162=VERTEX_POINT('',#279);
#163=VERTEX_POINT('',#282);
#164=VERTEX_POINT('',#285);
#165=VERTEX_POINT('',#290);
#166=VERTEX_POINT('',#293);
#167=VERTEX_POINT('',#297);
#168=VERTEX_POINT('',#300);
#169=VERTEX_POINT('',#303);
#170=VERTEX_POINT('',#307);
#171=VERTEX_POINT('',#310);
#172=EDGE_CURVE('',#161,#161,#183,.T.);
#173=EDGE_CURVE('',#162,#162,#184,.T.);
#174=EDGE_CURVE('',#163,#163,#185,.T.);
#175=EDGE_CURVE('',#164,#164,#186,.T.);
#176=EDGE_CURVE('',#165,#165,#187,.T.);
#177=EDGE_CURVE('',#166,#166,#188,.T.);
#178=EDGE_CURVE('',#167,#167,#189,.T.);
#179=EDGE_CURVE('',#168,#168,#190,.T.);
#180=EDGE_CURVE('',#169,#169,#191,.T.);
#181=EDGE_CURVE('',#170,#170,#192,.T.);
#182=EDGE_CURVE('',#171,#171,#193,.T.);
#183=CIRCLE('',#195,2.00000000000001);
#184=CIRCLE('',#196,2.00000000000001);
#185=CIRCLE('',#198,1.45000000000005);
#186=CIRCLE('',#200,1.45000000000005);
#187=CIRCLE('',#204,1.5);
#188=CIRCLE('',#206,1.5);
#189=CIRCLE('',#209,1.5);
#190=CIRCLE('',#211,2.00000000000001);
#191=CIRCLE('',#213,2.00000000000001);
#192=CIRCLE('',#216,2.00000000000001);
#193=CIRCLE('',#218,2.00000000000001);
#194=AXIS2_PLACEMENT_3D('',#275,#221,#222);
#195=AXIS2_PLACEMENT_3D('',#276,#223,#224);
#196=AXIS2_PLACEMENT_3D('',#278,#225,#226);
#197=AXIS2_PLACEMENT_3D('',#280,#227,#228);
#198=AXIS2_PLACEMENT_3D('',#281,#229,#230);
#199=AXIS2_PLACEMENT_3D('',#283,#231,#232);
#200=AXIS2_PLACEMENT_3D('',#284,#233,#234);
#201=AXIS2_PLACEMENT_3D('',#286,#235,#236);
#202=AXIS2_PLACEMENT_3D('',#287,#237,#238);
#203=AXIS2_PLACEMENT_3D('',#288,#239,#240);
#204=AXIS2_PLACEMENT_3D('',#289,#241,#242);
#205=AXIS2_PLACEMENT_3D('',#291,#243,#244);
#206=AXIS2_PLACEMENT_3D('',#292,#245,#246);
#207=AXIS2_PLACEMENT_3D('',#294,#247,#248);
#208=AXIS2_PLACEMENT_3D('',#295,#249,#250);
#209=AXIS2_PLACEMENT_3D('',#296,#251,#252);
#210=AXIS2_PLACEMENT_3D('',#298,#253,#254);
#211=AXIS2_PLACEMENT_3D('',#299,#255,#256);
#212=AXIS2_PLACEMENT_3D('',#301,#257,#258);
#213=AXIS2_PLACEMENT_3D('',#302,#259,#260);
#214=AXIS2_PLACEMENT_3D('',#304,#261,#262);
#215=AXIS2_PLACEMENT_3D('',#305,#263,#264);
#216=AXIS2_PLACEMENT_3D('',#306,#265,#266);
#217=AXIS2_PLACEMENT_3D('',#308,#267,#268);
#218=AXIS2_PLACEMENT_3D('',#309,#269,#270);
#219=AXIS2_PLACEMENT_3D('',#311,#271,#272);
#220=AXIS2_PLACEMENT_3D('',#312,#273,#274);
#221=DIRECTION('',(0.,0.,1.));
#222=DIRECTION('',(1.,0.,0.));
#223=DIRECTION('',(0.,0.,1.));
#224=DIRECTION('',(-1.,0.,0.));
#225=DIRECTION('',(0.,0.,1.));
#226=DIRECTION('',(1.,0.,0.));
#227=DIRECTION('',(0.,0.,1.));
#228=DIRECTION('',(1.,0.,0.));
#229=DIRECTION('',(0.,0.,1.));
#230=DIRECTION('',(1.,0.,0.));
#231=DIRECTION('',(0.,0.,-1.));
#232=DIRECTION('',(-1.,0.,0.));
#233=DIRECTION('',(0.,0.,1.));
#234=DIRECTION('',(1.,0.,0.));
#235=DIRECTION('',(0.,0.,1.));
#236=DIRECTION('',(1.,0.,-2.85545853316587E-016));
#237=DIRECTION('',(0.,0.,1.));
#238=DIRECTION('',(1.,0.,0.));
#239=DIRECTION('',(0.,0.,-1.));
#240=DIRECTION('',(-1.,0.,0.));
#241=DIRECTION('',(0.,0.,1.));
#242=DIRECTION('',(1.,0.,0.));
#243=DIRECTION('',(0.,6.12323399573677E-017,1.));
#244=DIRECTION('',(0.,1.,0.));
#245=DIRECTION('',(0.,0.,1.));
#246=DIRECTION('',(1.,0.,0.));
#247=DIRECTION('',(0.,0.,1.));
#248=DIRECTION('',(1.,0.,0.));
#249=DIRECTION('',(0.,0.,-1.));
#250=DIRECTION('',(-1.,0.,0.));
#251=DIRECTION('',(0.,0.,1.));
#252=DIRECTION('',(1.,0.,0.));
#253=DIRECTION('',(0.,0.,1.));
#254=DIRECTION('',(1.,0.,0.));
#255=DIRECTION('',(0.,0.,1.));
#256=DIRECTION('',(1.,0.,0.));
#257=DIRECTION('',(0.,0.,-1.));
#258=DIRECTION('',(-1.,0.,1.7321252880447E-017));
#259=DIRECTION('',(0.,0.,-1.));
#260=DIRECTION('',(1.,0.,0.));
#261=DIRECTION('',(0.,0.,1.));
#262=DIRECTION('',(1.,0.,0.));
#263=DIRECTION('',(0.,0.,1.));
#264=DIRECTION('',(1.,0.,0.));
#265=DIRECTION('',(0.,0.,1.));
#266=DIRECTION('',(-1.,0.,0.));
#267=DIRECTION('',(0.,0.,-1.));
#268=DIRECTION('',(-1.,0.,0.));
#269=DIRECTION('',(0.,0.,-1.));
#270=DIRECTION('',(1.,0.,0.));
#271=DIRECTION('',(0.,0.,1.));
#272=DIRECTION('',(1.,0.,0.));
#273=DIRECTION('',(0.,0.,1.));
#274=DIRECTION('',(1.,0.,0.));
#275=CARTESIAN_POINT('',(0.,0.,0.));
#276=CARTESIAN_POINT('',(0.,0.,-4.));
#277=CARTESIAN_POINT('',(-2.00000000000001,0.,-4.));
#278=CARTESIAN_POINT('',(0.,0.,-5.82233523800187));
#279=CARTESIAN_POINT('',(2.00000000000001,0.,-5.82233523800187));
#280=CARTESIAN_POINT('',(0.,0.,-13.));
#281=CARTESIAN_POINT('',(0.,0.,-13.));
#282=CARTESIAN_POINT('',(1.45000000000005,0.,-13.));
#283=CARTESIAN_POINT('',(0.,1.45000000000005,-13.));
#284=CARTESIAN_POINT('',(0.,0.,-10.));
#285=CARTESIAN_POINT('',(1.45000000000005,0.,-10.));
#286=CARTESIAN_POINT('',(0.,0.,-5.82233523800187));
#287=CARTESIAN_POINT('',(0.,0.,-13.));
#288=CARTESIAN_POINT('',(0.,0.,-4.));
#289=CARTESIAN_POINT('',(0.,0.,-14.5));
#290=CARTESIAN_POINT('',(1.5,0.,-14.5));
#291=CARTESIAN_POINT('',(0.,0.,-14.5));
#292=CARTESIAN_POINT('',(0.,0.,-13.));
#293=CARTESIAN_POINT('',(1.5,0.,-13.));
#294=CARTESIAN_POINT('',(0.,0.,-16.));
#295=CARTESIAN_POINT('',(0.,1.5,-13.));
#296=CARTESIAN_POINT('',(0.,0.,24.));
#297=CARTESIAN_POINT('',(1.5,0.,24.));
#298=CARTESIAN_POINT('',(0.,0.,24.));
#299=CARTESIAN_POINT('',(0.,0.,23.5));
#300=CARTESIAN_POINT('',(2.00000000000001,0.,23.5));
#301=CARTESIAN_POINT('',(0.,0.,24.));
#302=CARTESIAN_POINT('',(0.,0.,0.));
#303=CARTESIAN_POINT('',(2.00000000000001,0.,0.));
#304=CARTESIAN_POINT('',(0.,0.,-13.));
#305=CARTESIAN_POINT('',(0.,0.,0.));
#306=CARTESIAN_POINT('',(0.,0.,-4.));
#307=CARTESIAN_POINT('',(-2.00000000000001,0.,-4.));
#308=CARTESIAN_POINT('',(0.,0.,-4.));
#309=CARTESIAN_POINT('',(0.,0.,0.));
#310=CARTESIAN_POINT('',(2.00000000000001,0.,0.));
#311=CARTESIAN_POINT('',(0.,0.,0.));
#312=CARTESIAN_POINT('',(0.,0.,-13.));
#313=MECHANICAL_DESIGN_GEOMETRIC_PRESENTATION_REPRESENTATION('',(#28,#29,
#30,#31),#314);
#314=(
GEOMETRIC_REPRESENTATION_CONTEXT(3)
GLOBAL_UNCERTAINTY_ASSIGNED_CONTEXT((#315))
GLOBAL_UNIT_ASSIGNED_CONTEXT((#321,#317,#316))
REPRESENTATION_CONTEXT('00039142','TOP_LEVEL_ASSEMBLY_PART')
);
#315=UNCERTAINTY_MEASURE_WITH_UNIT(LENGTH_MEASURE(2.E-005),#321,
'DISTANCE_ACCURACY_VALUE','Maximum Tolerance applied to model');
#316=(
NAMED_UNIT(*)
SI_UNIT($,.STERADIAN.)
SOLID_ANGLE_UNIT()
);
#317=(
CONVERSION_BASED_UNIT('DEGREE',#319)
NAMED_UNIT(#318)
PLANE_ANGLE_UNIT()
);
#318=DIMENSIONAL_EXPONENTS(0.,0.,0.,0.,0.,0.,0.);
#319=PLANE_ANGLE_MEASURE_WITH_UNIT(PLANE_ANGLE_MEASURE(0.0174532925),#320);
#320=(
NAMED_UNIT(*)
PLANE_ANGLE_UNIT()
SI_UNIT($,.RADIAN.)
);
#321=(
LENGTH_UNIT()
NAMED_UNIT(*)
SI_UNIT(.MILLI.,.METRE.)
);
ENDSEC;
END-ISO-10303-21;
