ISO-10303-21;
HEADER;
/* Generated by software containing ST-Developer
 * from STEP Tools, Inc. (www.steptools.com) 
 */
/* OPTION: using custom schema-name function */

FILE_DESCRIPTION(
/* description */ (''),
/* implementation_level */ '2;1');

FILE_NAME(
/* name */ '00087583.stp',
/* time_stamp */ '2012-06-01T16:40:18+05:00',
/* author */ (''),
/* organization */ (''),
/* preprocessor_version */ 'ST-DEVELOPER v11',
/* originating_system */ 'SIEMENS PLM Software NX 7.5',
/* authorisation */ '');

FILE_SCHEMA (('AUTOMOTIVE_DESIGN { 1 0 10303 214 1 1 1 1 }'));
ENDSEC;

DATA;
#10=SHAPE_REPRESENTATION_RELATIONSHIP('None',
'relationship between INPUDBDBxoc4-None and INPUDBDBxoc4-None',#22,#11);
#11=ADVANCED_BREP_SHAPE_REPRESENTATION('INPUDBDBxoc4-None',(#49,#50,#51),
#398);
#12=SHAPE_DEFINITION_REPRESENTATION(#13,#22);
#13=PRODUCT_DEFINITION_SHAPE('','',#14);
#14=PRODUCT_DEFINITION(' ','',#16,#15);
#15=PRODUCT_DEFINITION_CONTEXT('part definition',#21,'design');
#16=PRODUCT_DEFINITION_FORMATION_WITH_SPECIFIED_SOURCE(' ',' ',#18,.NOT_KNOWN.);
#17=PRODUCT_RELATED_PRODUCT_CATEGORY('part','',(#18));
#18=PRODUCT('INPUDBDBxoc4','INPUDBDBxoc4',' ',(#19));
#19=PRODUCT_CONTEXT(' ',#21,'mechanical');
#20=APPLICATION_PROTOCOL_DEFINITION('international standard',
'automotive_design',2001,#21);
#21=APPLICATION_CONTEXT(
'core data for automotive mechanical design processes');
#22=SHAPE_REPRESENTATION('INPUDBDBxoc4-None',(#237),#398);
#23=PRESENTATION_LAYER_ASSIGNMENT('2','Layer 2',(#49));
#24=PRESENTATION_LAYER_ASSIGNMENT('1','Layer 1',(#50));
#25=PRESENTATION_LAYER_ASSIGNMENT('3','Layer 3',(#51));
#26=STYLED_ITEM('',(#29),#49);
#27=STYLED_ITEM('',(#30),#50);
#28=STYLED_ITEM('',(#31),#51);
#29=PRESENTATION_STYLE_ASSIGNMENT((#32));
#30=PRESENTATION_STYLE_ASSIGNMENT((#33));
#31=PRESENTATION_STYLE_ASSIGNMENT((#34));
#32=SURFACE_STYLE_USAGE(.BOTH.,#35);
#33=SURFACE_STYLE_USAGE(.BOTH.,#36);
#34=SURFACE_STYLE_USAGE(.BOTH.,#37);
#35=SURFACE_SIDE_STYLE('',(#38));
#36=SURFACE_SIDE_STYLE('',(#39));
#37=SURFACE_SIDE_STYLE('',(#40));
#38=SURFACE_STYLE_FILL_AREA(#41);
#39=SURFACE_STYLE_FILL_AREA(#42);
#40=SURFACE_STYLE_FILL_AREA(#43);
#41=FILL_AREA_STYLE('',(#44));
#42=FILL_AREA_STYLE('',(#45));
#43=FILL_AREA_STYLE('',(#46));
#44=FILL_AREA_STYLE_COLOUR('',#47);
#45=FILL_AREA_STYLE_COLOUR('',#47);
#46=FILL_AREA_STYLE_COLOUR('',#48);
#47=COLOUR_RGB('Medium Gray',0.490196078431373,0.490196078431373,0.490196078431373);
#48=COLOUR_RGB('Light Gray',0.8,0.8,0.8);
#49=MANIFOLD_SOLID_BREP('',#52);
#50=MANIFOLD_SOLID_BREP('',#53);
#51=MANIFOLD_SOLID_BREP('',#54);
#52=CLOSED_SHELL('',(#76,#77,#78,#79,#80,#81,#82,#83));
#53=CLOSED_SHELL('',(#84,#85,#86,#87,#88,#89,#90,#91));
#54=CLOSED_SHELL('',(#92,#93,#94));
#55=SPHERICAL_SURFACE('',#249,12.2);
#56=SPHERICAL_SURFACE('',#269,12.7);
#57=FACE_OUTER_BOUND('',#133,.T.);
#58=FACE_OUTER_BOUND('',#138,.T.);
#59=FACE_OUTER_BOUND('',#139,.T.);
#60=FACE_OUTER_BOUND('',#152,.T.);
#61=FACE_OUTER_BOUND('',#153,.T.);
#62=FACE_OUTER_BOUND('',#154,.T.);
#63=CYLINDRICAL_SURFACE('',#247,10.5);
#64=CYLINDRICAL_SURFACE('',#258,6.);
#65=CYLINDRICAL_SURFACE('',#262,6.5);
#66=PLANE('',#244);
#67=PLANE('',#252);
#68=PLANE('',#254);
#69=PLANE('',#267);
#70=PLANE('',#271);
#71=CONICAL_SURFACE('',#242,7.36939889058802,62.4999999999999);
#72=CONICAL_SURFACE('',#251,10.5,29.9999999999996);
#73=CONICAL_SURFACE('',#256,6.,45.);
#74=CONICAL_SURFACE('',#260,6.,30.);
#75=CONICAL_SURFACE('',#264,6.5,27.4999999999997);
#76=ADVANCED_FACE('',(#99,#100),#95,.F.);
#77=ADVANCED_FACE('',(#101,#102),#71,.F.);
#78=ADVANCED_FACE('',(#103,#104),#66,.F.);
#79=ADVANCED_FACE('',(#105,#106),#63,.T.);
#80=ADVANCED_FACE('',(#57),#55,.T.);
#81=ADVANCED_FACE('',(#107,#108),#96,.F.);
#82=ADVANCED_FACE('',(#109,#110),#72,.T.);
#83=ADVANCED_FACE('',(#58),#67,.T.);
#84=ADVANCED_FACE('',(#59),#68,.F.);
#85=ADVANCED_FACE('',(#111,#112),#73,.T.);
#86=ADVANCED_FACE('',(#113,#114),#64,.T.);
#87=ADVANCED_FACE('',(#115,#116),#74,.T.);
#88=ADVANCED_FACE('',(#117,#118),#65,.T.);
#89=ADVANCED_FACE('',(#119,#120),#75,.T.);
#90=ADVANCED_FACE('',(#121,#122),#97,.F.);
#91=ADVANCED_FACE('',(#60),#69,.F.);
#92=ADVANCED_FACE('',(#61),#56,.T.);
#93=ADVANCED_FACE('',(#62),#70,.F.);
#94=ADVANCED_FACE('',(#123,#124),#98,.T.);
#95=TOROIDAL_SURFACE('',#240,7.,0.8);
#96=TOROIDAL_SURFACE('',#250,15.5,5.);
#97=TOROIDAL_SURFACE('',#266,7.,0.8);
#98=TOROIDAL_SURFACE('',#272,8.96716231591689,1.2);
#99=FACE_BOUND('',#125,.T.);
#100=FACE_BOUND('',#126,.T.);
#101=FACE_BOUND('',#127,.T.);
#102=FACE_BOUND('',#128,.T.);
#103=FACE_BOUND('',#129,.T.);
#104=FACE_BOUND('',#130,.T.);
#105=FACE_BOUND('',#131,.T.);
#106=FACE_BOUND('',#132,.T.);
#107=FACE_BOUND('',#134,.T.);
#108=FACE_BOUND('',#135,.T.);
#109=FACE_BOUND('',#136,.T.);
#110=FACE_BOUND('',#137,.T.);
#111=FACE_BOUND('',#140,.T.);
#112=FACE_BOUND('',#141,.T.);
#113=FACE_BOUND('',#142,.T.);
#114=FACE_BOUND('',#143,.T.);
#115=FACE_BOUND('',#144,.T.);
#116=FACE_BOUND('',#145,.T.);
#117=FACE_BOUND('',#146,.T.);
#118=FACE_BOUND('',#147,.T.);
#119=FACE_BOUND('',#148,.T.);
#120=FACE_BOUND('',#149,.T.);
#121=FACE_BOUND('',#150,.T.);
#122=FACE_BOUND('',#151,.T.);
#123=FACE_BOUND('',#155,.T.);
#124=FACE_BOUND('',#156,.T.);
#125=EDGE_LOOP('',(#157));
#126=EDGE_LOOP('',(#158));
#127=EDGE_LOOP('',(#159));
#128=EDGE_LOOP('',(#160));
#129=EDGE_LOOP('',(#161));
#130=EDGE_LOOP('',(#162));
#131=EDGE_LOOP('',(#163));
#132=EDGE_LOOP('',(#164));
#133=EDGE_LOOP('',(#165));
#134=EDGE_LOOP('',(#166));
#135=EDGE_LOOP('',(#167));
#136=EDGE_LOOP('',(#168));
#137=EDGE_LOOP('',(#169));
#138=EDGE_LOOP('',(#170));
#139=EDGE_LOOP('',(#171));
#140=EDGE_LOOP('',(#172));
#141=EDGE_LOOP('',(#173));
#142=EDGE_LOOP('',(#174));
#143=EDGE_LOOP('',(#175));
#144=EDGE_LOOP('',(#176));
#145=EDGE_LOOP('',(#177));
#146=EDGE_LOOP('',(#178));
#147=EDGE_LOOP('',(#179));
#148=EDGE_LOOP('',(#180));
#149=EDGE_LOOP('',(#181));
#150=EDGE_LOOP('',(#182));
#151=EDGE_LOOP('',(#183));
#152=EDGE_LOOP('',(#184));
#153=EDGE_LOOP('',(#185));
#154=EDGE_LOOP('',(#186));
#155=EDGE_LOOP('',(#187));
#156=EDGE_LOOP('',(#188));
#157=ORIENTED_EDGE('',*,*,#205,.F.);
#158=ORIENTED_EDGE('',*,*,#206,.F.);
#159=ORIENTED_EDGE('',*,*,#207,.F.);
#160=ORIENTED_EDGE('',*,*,#205,.T.);
#161=ORIENTED_EDGE('',*,*,#208,.T.);
#162=ORIENTED_EDGE('',*,*,#207,.T.);
#163=ORIENTED_EDGE('',*,*,#209,.T.);
#164=ORIENTED_EDGE('',*,*,#210,.T.);
#165=ORIENTED_EDGE('',*,*,#211,.T.);
#166=ORIENTED_EDGE('',*,*,#210,.F.);
#167=ORIENTED_EDGE('',*,*,#211,.F.);
#168=ORIENTED_EDGE('',*,*,#208,.F.);
#169=ORIENTED_EDGE('',*,*,#209,.F.);
#170=ORIENTED_EDGE('',*,*,#206,.T.);
#171=ORIENTED_EDGE('',*,*,#212,.T.);
#172=ORIENTED_EDGE('',*,*,#212,.F.);
#173=ORIENTED_EDGE('',*,*,#213,.F.);
#174=ORIENTED_EDGE('',*,*,#213,.T.);
#175=ORIENTED_EDGE('',*,*,#214,.F.);
#176=ORIENTED_EDGE('',*,*,#215,.F.);
#177=ORIENTED_EDGE('',*,*,#214,.T.);
#178=ORIENTED_EDGE('',*,*,#216,.F.);
#179=ORIENTED_EDGE('',*,*,#215,.T.);
#180=ORIENTED_EDGE('',*,*,#217,.F.);
#181=ORIENTED_EDGE('',*,*,#216,.T.);
#182=ORIENTED_EDGE('',*,*,#218,.T.);
#183=ORIENTED_EDGE('',*,*,#217,.T.);
#184=ORIENTED_EDGE('',*,*,#218,.F.);
#185=ORIENTED_EDGE('',*,*,#219,.T.);
#186=ORIENTED_EDGE('',*,*,#220,.F.);
#187=ORIENTED_EDGE('',*,*,#219,.F.);
#188=ORIENTED_EDGE('',*,*,#220,.T.);
#189=VERTEX_POINT('',#347);
#190=VERTEX_POINT('',#349);
#191=VERTEX_POINT('',#352);
#192=VERTEX_POINT('',#355);
#193=VERTEX_POINT('',#358);
#194=VERTEX_POINT('',#360);
#195=VERTEX_POINT('',#363);
#196=VERTEX_POINT('',#369);
#197=VERTEX_POINT('',#372);
#198=VERTEX_POINT('',#375);
#199=VERTEX_POINT('',#378);
#200=VERTEX_POINT('',#381);
#201=VERTEX_POINT('',#384);
#202=VERTEX_POINT('',#387);
#203=VERTEX_POINT('',#391);
#204=VERTEX_POINT('',#394);
#205=EDGE_CURVE('',#189,#189,#221,.T.);
#206=EDGE_CURVE('',#190,#190,#222,.T.);
#207=EDGE_CURVE('',#191,#191,#223,.T.);
#208=EDGE_CURVE('',#192,#192,#224,.T.);
#209=EDGE_CURVE('',#193,#193,#225,.T.);
#210=EDGE_CURVE('',#194,#194,#226,.T.);
#211=EDGE_CURVE('',#195,#195,#227,.T.);
#212=EDGE_CURVE('',#196,#196,#228,.T.);
#213=EDGE_CURVE('',#197,#197,#229,.T.);
#214=EDGE_CURVE('',#198,#198,#230,.T.);
#215=EDGE_CURVE('',#199,#199,#231,.T.);
#216=EDGE_CURVE('',#200,#200,#232,.T.);
#217=EDGE_CURVE('',#201,#201,#233,.T.);
#218=EDGE_CURVE('',#202,#202,#234,.T.);
#219=EDGE_CURVE('',#203,#203,#235,.T.);
#220=EDGE_CURVE('',#204,#204,#236,.T.);
#221=CIRCLE('',#238,7.36939889058802);
#222=CIRCLE('',#239,6.37550020016015);
#223=CIRCLE('',#241,7.77205339267457);
#224=CIRCLE('',#243,10.4711324865405);
#225=CIRCLE('',#245,10.5);
#226=CIRCLE('',#246,10.5);
#227=CIRCLE('',#248,10.9941860465116);
#228=CIRCLE('',#253,4.2);
#229=CIRCLE('',#255,6.);
#230=CIRCLE('',#257,6.);
#231=CIRCLE('',#259,6.5);
#232=CIRCLE('',#261,6.5);
#233=CIRCLE('',#263,6.29039133345742);
#234=CIRCLE('',#265,6.37550020016015);
#235=CIRCLE('',#268,9.9028662097516);
#236=CIRCLE('',#270,8.96716231591689);
#237=AXIS2_PLACEMENT_3D('',#345,#273,#274);
#238=AXIS2_PLACEMENT_3D('',#346,#275,#276);
#239=AXIS2_PLACEMENT_3D('',#348,#277,#278);
#240=AXIS2_PLACEMENT_3D('',#350,#279,#280);
#241=AXIS2_PLACEMENT_3D('',#351,#281,#282);
#242=AXIS2_PLACEMENT_3D('',#353,#283,#284);
#243=AXIS2_PLACEMENT_3D('',#354,#285,#286);
#244=AXIS2_PLACEMENT_3D('',#356,#287,#288);
#245=AXIS2_PLACEMENT_3D('',#357,#289,#290);
#246=AXIS2_PLACEMENT_3D('',#359,#291,#292);
#247=AXIS2_PLACEMENT_3D('',#361,#293,#294);
#248=AXIS2_PLACEMENT_3D('',#362,#295,#296);
#249=AXIS2_PLACEMENT_3D('',#364,#297,#298);
#250=AXIS2_PLACEMENT_3D('',#365,#299,#300);
#251=AXIS2_PLACEMENT_3D('',#366,#301,#302);
#252=AXIS2_PLACEMENT_3D('',#367,#303,#304);
#253=AXIS2_PLACEMENT_3D('',#368,#305,#306);
#254=AXIS2_PLACEMENT_3D('',#370,#307,#308);
#255=AXIS2_PLACEMENT_3D('',#371,#309,#310);
#256=AXIS2_PLACEMENT_3D('',#373,#311,#312);
#257=AXIS2_PLACEMENT_3D('',#374,#313,#314);
#258=AXIS2_PLACEMENT_3D('',#376,#315,#316);
#259=AXIS2_PLACEMENT_3D('',#377,#317,#318);
#260=AXIS2_PLACEMENT_3D('',#379,#319,#320);
#261=AXIS2_PLACEMENT_3D('',#380,#321,#322);
#262=AXIS2_PLACEMENT_3D('',#382,#323,#324);
#263=AXIS2_PLACEMENT_3D('',#383,#325,#326);
#264=AXIS2_PLACEMENT_3D('',#385,#327,#328);
#265=AXIS2_PLACEMENT_3D('',#386,#329,#330);
#266=AXIS2_PLACEMENT_3D('',#388,#331,#332);
#267=AXIS2_PLACEMENT_3D('',#389,#333,#334);
#268=AXIS2_PLACEMENT_3D('',#390,#335,#336);
#269=AXIS2_PLACEMENT_3D('',#392,#337,#338);
#270=AXIS2_PLACEMENT_3D('',#393,#339,#340);
#271=AXIS2_PLACEMENT_3D('',#395,#341,#342);
#272=AXIS2_PLACEMENT_3D('',#396,#343,#344);
#273=DIRECTION('',(0.,0.,1.));
#274=DIRECTION('',(1.,0.,0.));
#275=DIRECTION('',(0.,0.,-1.));
#276=DIRECTION('',(-1.,0.,0.));
#277=DIRECTION('',(0.,0.,1.));
#278=DIRECTION('',(-1.,0.,0.));
#279=DIRECTION('',(0.,0.,-1.));
#280=DIRECTION('',(-1.,0.,0.));
#281=DIRECTION('',(0.,0.,-1.));
#282=DIRECTION('',(-1.,0.,0.));
#283=DIRECTION('',(0.,0.,1.));
#284=DIRECTION('',(1.,0.,-2.51884869931298E-017));
#285=DIRECTION('',(0.,0.,1.));
#286=DIRECTION('',(-1.,0.,0.));
#287=DIRECTION('',(0.,0.,-1.));
#288=DIRECTION('',(-1.,0.,0.));
#289=DIRECTION('',(0.,0.,-1.));
#290=DIRECTION('',(-1.,0.,0.));
#291=DIRECTION('',(0.,0.,1.));
#292=DIRECTION('',(-1.,0.,0.));
#293=DIRECTION('',(0.,0.,-1.));
#294=DIRECTION('',(-1.,0.,0.));
#295=DIRECTION('',(0.,0.,-1.));
#296=DIRECTION('',(-1.,0.,0.));
#297=DIRECTION('',(6.12323399573677E-017,0.,-1.));
#298=DIRECTION('',(1.,0.,0.));
#299=DIRECTION('',(0.,0.,-1.));
#300=DIRECTION('',(-1.,0.,0.));
#301=DIRECTION('',(0.,0.,-1.));
#302=DIRECTION('',(-1.,0.,-1.77057686308612E-016));
#303=DIRECTION('',(0.,0.,1.));
#304=DIRECTION('',(1.,0.,0.));
#305=DIRECTION('',(0.,0.,1.));
#306=DIRECTION('',(-1.,0.,0.));
#307=DIRECTION('',(0.,0.,-1.));
#308=DIRECTION('',(-1.,0.,0.));
#309=DIRECTION('',(0.,0.,-1.));
#310=DIRECTION('',(-1.,0.,0.));
#311=DIRECTION('',(0.,0.,-1.));
#312=DIRECTION('',(-1.,0.,2.41412809778085E-017));
#313=DIRECTION('',(0.,0.,-1.));
#314=DIRECTION('',(-1.,0.,0.));
#315=DIRECTION('',(0.,0.,-1.));
#316=DIRECTION('',(-1.,0.,0.));
#317=DIRECTION('',(0.,0.,-1.));
#318=DIRECTION('',(-1.,0.,0.));
#319=DIRECTION('',(0.,0.,-1.));
#320=DIRECTION('',(-1.,0.,2.97372533724315E-017));
#321=DIRECTION('',(0.,0.,-1.));
#322=DIRECTION('',(-1.,0.,0.));
#323=DIRECTION('',(0.,0.,-1.));
#324=DIRECTION('',(-1.,0.,0.));
#325=DIRECTION('',(0.,0.,-1.));
#326=DIRECTION('',(-1.,0.,0.));
#327=DIRECTION('',(0.,0.,1.));
#328=DIRECTION('',(1.,0.,1.57981279155512E-016));
#329=DIRECTION('',(0.,0.,1.));
#330=DIRECTION('',(-1.,0.,0.));
#331=DIRECTION('',(0.,0.,-1.));
#332=DIRECTION('',(-1.,0.,0.));
#333=DIRECTION('',(0.,0.,1.));
#334=DIRECTION('',(1.,0.,0.));
#335=DIRECTION('',(0.,0.,-1.));
#336=DIRECTION('',(-1.,0.,0.));
#337=DIRECTION('',(6.12323399573677E-017,0.,-1.));
#338=DIRECTION('',(1.,0.,0.));
#339=DIRECTION('',(0.,0.,-1.));
#340=DIRECTION('',(-1.,0.,0.));
#341=DIRECTION('',(0.,0.,-1.));
#342=DIRECTION('',(-1.,0.,0.));
#343=DIRECTION('',(0.,0.,-1.));
#344=DIRECTION('',(-1.,0.,0.));
#345=CARTESIAN_POINT('',(0.,0.,0.));
#346=CARTESIAN_POINT('',(6.57750132879188E-016,0.,-0.209608666542578));
#347=CARTESIAN_POINT('',(-7.36939889058802,0.,-0.209608666542578));
#348=CARTESIAN_POINT('',(8.67361737988404E-016,0.,0.));
#349=CARTESIAN_POINT('',(-6.37550020016015,0.,0.));
#350=CARTESIAN_POINT('',(8.67361737988404E-016,0.,0.5));
#351=CARTESIAN_POINT('',(6.57750132879188E-016,0.,0.));
#352=CARTESIAN_POINT('',(-7.77205339267457,0.,0.));
#353=CARTESIAN_POINT('',(6.57750132879188E-016,0.,-0.209608666542578));
#354=CARTESIAN_POINT('',(6.57750132879188E-016,0.,-1.35525271560688E-017));
#355=CARTESIAN_POINT('',(-10.4711324865405,0.,-1.35525271560688E-017));
#356=CARTESIAN_POINT('',(7.77205339267458,0.,-1.35525271560688E-017));
#357=CARTESIAN_POINT('',(6.57750132879188E-016,0.,-0.0500000000000014));
#358=CARTESIAN_POINT('',(-10.5,0.,-0.0500000000000014));
#359=CARTESIAN_POINT('',(6.57750132879188E-016,0.,-20.4841298294565));
#360=CARTESIAN_POINT('',(-10.5,0.,-20.4841298294565));
#361=CARTESIAN_POINT('',(6.57750132879188E-016,0.,17.75));
#362=CARTESIAN_POINT('',(3.46944695195361E-015,0.,-22.6515339488006));
#363=CARTESIAN_POINT('',(-10.9941860465116,0.,-22.6515339488006));
#364=CARTESIAN_POINT('',(3.46944695195361E-015,0.,-27.94));
#365=CARTESIAN_POINT('',(6.57750132879188E-016,0.,-20.4841298294565));
#366=CARTESIAN_POINT('',(6.57750132879188E-016,0.,-0.0500000000000014));
#367=CARTESIAN_POINT('',(0.,0.,0.));
#368=CARTESIAN_POINT('',(6.57750132879188E-016,0.,21.75));
#369=CARTESIAN_POINT('',(-4.2,0.,21.75));
#370=CARTESIAN_POINT('',(-4.44089209850063E-015,0.,21.75));
#371=CARTESIAN_POINT('',(6.57750132879188E-016,0.,19.95));
#372=CARTESIAN_POINT('',(-6.,0.,19.95));
#373=CARTESIAN_POINT('',(6.57750132879188E-016,0.,19.95));
#374=CARTESIAN_POINT('',(6.57750132879188E-016,0.,5.86602540378443));
#375=CARTESIAN_POINT('',(-6.,0.,5.86602540378443));
#376=CARTESIAN_POINT('',(6.57750132879188E-016,0.,17.75));
#377=CARTESIAN_POINT('',(6.57750132879188E-016,0.,5.));
#378=CARTESIAN_POINT('',(-6.49999999999999,0.,5.));
#379=CARTESIAN_POINT('',(6.57750132879188E-016,0.,5.86602540378443));
#380=CARTESIAN_POINT('',(6.57750132879188E-016,0.,1.27205339267458));
#381=CARTESIAN_POINT('',(-6.5,0.,1.27205339267458));
#382=CARTESIAN_POINT('',(6.57750132879188E-016,0.,17.75));
#383=CARTESIAN_POINT('',(6.57750132879188E-016,0.,0.869398890588027));
#384=CARTESIAN_POINT('',(-6.29039133345742,0.,0.869398890588027));
#385=CARTESIAN_POINT('',(6.57750132879188E-016,0.,1.27205339267458));
#386=CARTESIAN_POINT('',(8.67361737988404E-016,0.,0.));
#387=CARTESIAN_POINT('',(-6.37550020016015,0.,0.));
#388=CARTESIAN_POINT('',(8.67361737988404E-016,0.,0.5));
#389=CARTESIAN_POINT('',(0.,0.,0.));
#390=CARTESIAN_POINT('',(6.57750132879188E-016,0.,-19.9886956521738));
#391=CARTESIAN_POINT('',(-9.9028662097516,0.,-19.9886956521738));
#392=CARTESIAN_POINT('',(0.,0.,-27.94));
#393=CARTESIAN_POINT('',(6.57750132879188E-016,0.,-19.54));
#394=CARTESIAN_POINT('',(-8.96716231591689,0.,-19.54));
#395=CARTESIAN_POINT('',(-1.77635683940025E-015,0.,-19.54));
#396=CARTESIAN_POINT('',(0.,0.,-20.74));
#397=MECHANICAL_DESIGN_GEOMETRIC_PRESENTATION_REPRESENTATION('',(#26,#27,
#28),#398);
#398=(
GEOMETRIC_REPRESENTATION_CONTEXT(3)
GLOBAL_UNCERTAINTY_ASSIGNED_CONTEXT((#399))
GLOBAL_UNIT_ASSIGNED_CONTEXT((#405,#401,#400))
REPRESENTATION_CONTEXT('00087583','TOP_LEVEL_ASSEMBLY_PART')
);
#399=UNCERTAINTY_MEASURE_WITH_UNIT(LENGTH_MEASURE(2.E-005),#405,
'DISTANCE_ACCURACY_VALUE','Maximum Tolerance applied to model');
#400=(
NAMED_UNIT(*)
SI_UNIT($,.STERADIAN.)
SOLID_ANGLE_UNIT()
);
#401=(
CONVERSION_BASED_UNIT('DEGREE',#403)
NAMED_UNIT(#402)
PLANE_ANGLE_UNIT()
);
#402=DIMENSIONAL_EXPONENTS(0.,0.,0.,0.,0.,0.,0.);
#403=PLANE_ANGLE_MEASURE_WITH_UNIT(PLANE_ANGLE_MEASURE(0.0174532925),#404);
#404=(
NAMED_UNIT(*)
PLANE_ANGLE_UNIT()
SI_UNIT($,.RADIAN.)
);
#405=(
LENGTH_UNIT()
NAMED_UNIT(*)
SI_UNIT(.MILLI.,.METRE.)
);
ENDSEC;
END-ISO-10303-21;
