ISO-10303-21;
HEADER;
/* Generated by software containing ST-Developer
 * from STEP Tools, Inc. (www.steptools.com) 
 */
/* OPTION: using custom schema-name function */

FILE_DESCRIPTION(
/* description */ (''),
/* implementation_level */ '2;1');

FILE_NAME(
/* name */ 'R218.19-00.75-3F-27M.stp',
/* time_stamp */ '2017-09-14T10:16:53+06:00',
/* author */ (''),
/* organization */ (''),
/* preprocessor_version */ 'ST-DEVELOPER v16',
/* originating_system */ 'SIEMENS PLM Software NX 11.0',
/* authorisation */ '');

FILE_SCHEMA (('AUTOMOTIVE_DESIGN { 1 0 10303 214 3 1 1 1 }'));
ENDSEC;

DATA;
#10=CONSTRUCTIVE_GEOMETRY_REPRESENTATION_RELATIONSHIP(
'supplemental geometry','',#24,#11);
#11=CONSTRUCTIVE_GEOMETRY_REPRESENTATION('supplemental geometry',(#257,
#258,#259,#260),#433);
#12=SHAPE_REPRESENTATION_RELATIONSHIP('None',
'relationship between R218.19-00.75-3F-27M-None and R218.19-00.75-3F-2
7M-None',#24,#13);
#13=ADVANCED_BREP_SHAPE_REPRESENTATION('R218.19-00.75-3F-27M-None',(#43,
#44,#45),#433);
#14=SHAPE_DEFINITION_REPRESENTATION(#15,#24);
#15=PRODUCT_DEFINITION_SHAPE('','',#16);
#16=PRODUCT_DEFINITION(' ','',#18,#17);
#17=PRODUCT_DEFINITION_CONTEXT('part definition',#23,'design');
#18=PRODUCT_DEFINITION_FORMATION_WITH_SPECIFIED_SOURCE(' ',' ',#20,
 .NOT_KNOWN.);
#19=PRODUCT_RELATED_PRODUCT_CATEGORY('part','',(#20));
#20=PRODUCT('R218.19-00.75-3F-27M','R218.19-00.75-3F-27M',' ',(#21));
#21=PRODUCT_CONTEXT(' ',#23,'mechanical');
#22=APPLICATION_PROTOCOL_DEFINITION('international standard',
'automotive_design',2010,#23);
#23=APPLICATION_CONTEXT(
'core data for automotive mechanical design processes');
#24=SHAPE_REPRESENTATION('R218.19-00.75-3F-27M-None',(#256),#433);
#25=TOROIDAL_SURFACE('',#283,13.55,5.);
#26=TOROIDAL_SURFACE('',#284,9.75,0.8);
#27=TOROIDAL_SURFACE('',#285,9.35,0.8);
#28=SURFACE_STYLE_USAGE(.BOTH.,#31);
#29=SURFACE_STYLE_USAGE(.BOTH.,#32);
#30=SURFACE_STYLE_USAGE(.BOTH.,#33);
#31=SURFACE_SIDE_STYLE('',(#34));
#32=SURFACE_SIDE_STYLE('',(#35));
#33=SURFACE_SIDE_STYLE('',(#36));
#34=SURFACE_STYLE_FILL_AREA(#37);
#35=SURFACE_STYLE_FILL_AREA(#38);
#36=SURFACE_STYLE_FILL_AREA(#39);
#37=FILL_AREA_STYLE('',(#40));
#38=FILL_AREA_STYLE('',(#41));
#39=FILL_AREA_STYLE('',(#42));
#40=FILL_AREA_STYLE_COLOUR('',#250);
#41=FILL_AREA_STYLE_COLOUR('',#251);
#42=FILL_AREA_STYLE_COLOUR('',#251);
#43=MANIFOLD_SOLID_BREP('CUT',#46);
#44=MANIFOLD_SOLID_BREP('NOCUT',#47);
#45=MANIFOLD_SOLID_BREP('NOCUT',#48);
#46=CLOSED_SHELL('',(#89,#90,#91,#92));
#47=CLOSED_SHELL('',(#93,#94,#95,#96,#97,#98,#99,#100,#101,#102,#103));
#48=CLOSED_SHELL('',(#104,#105,#106,#107));
#49=PLANE('',#267);
#50=PLANE('',#287);
#51=PLANE('',#290);
#52=PLANE('',#295);
#53=CONICAL_SURFACE('',#266,9.525,45.);
#54=CONICAL_SURFACE('',#270,12.7,15.);
#55=CONICAL_SURFACE('',#276,8.55,25.);
#56=CONICAL_SURFACE('',#281,8.95,25.0000000000002);
#57=CONICAL_SURFACE('',#292,12.7,45.);
#58=CYLINDRICAL_SURFACE('',#264,9.525);
#59=CYLINDRICAL_SURFACE('',#273,8.55);
#60=CYLINDRICAL_SURFACE('',#278,8.95);
#61=CYLINDRICAL_SURFACE('',#288,12.7);
#62=CYLINDRICAL_SURFACE('',#294,12.7);
#63=FACE_BOUND('',#117,.T.);
#64=FACE_BOUND('',#118,.T.);
#65=FACE_BOUND('',#119,.T.);
#66=FACE_BOUND('',#120,.T.);
#67=FACE_BOUND('',#122,.T.);
#68=FACE_BOUND('',#123,.T.);
#69=FACE_BOUND('',#124,.T.);
#70=FACE_BOUND('',#125,.T.);
#71=FACE_BOUND('',#126,.T.);
#72=FACE_BOUND('',#127,.T.);
#73=FACE_BOUND('',#128,.T.);
#74=FACE_BOUND('',#129,.T.);
#75=FACE_BOUND('',#130,.T.);
#76=FACE_BOUND('',#131,.T.);
#77=FACE_BOUND('',#133,.T.);
#78=FACE_BOUND('',#134,.T.);
#79=FACE_BOUND('',#135,.T.);
#80=FACE_BOUND('',#136,.T.);
#81=FACE_BOUND('',#137,.T.);
#82=FACE_BOUND('',#138,.T.);
#83=FACE_BOUND('',#140,.T.);
#84=FACE_BOUND('',#141,.T.);
#85=FACE_BOUND('',#143,.T.);
#86=FACE_BOUND('',#144,.T.);
#87=FACE_BOUND('',#145,.T.);
#88=FACE_BOUND('',#146,.T.);
#89=ADVANCED_FACE('',(#110),#108,.T.);
#90=ADVANCED_FACE('',(#63,#64),#58,.T.);
#91=ADVANCED_FACE('',(#65,#66),#53,.T.);
#92=ADVANCED_FACE('',(#111),#49,.T.);
#93=ADVANCED_FACE('',(#67,#68),#54,.T.);
#94=ADVANCED_FACE('',(#69,#70),#59,.T.);
#95=ADVANCED_FACE('',(#71,#72),#55,.T.);
#96=ADVANCED_FACE('',(#73,#74),#60,.T.);
#97=ADVANCED_FACE('',(#75,#76),#56,.T.);
#98=ADVANCED_FACE('',(#112),#109,.T.);
#99=ADVANCED_FACE('',(#77,#78),#25,.F.);
#100=ADVANCED_FACE('',(#79,#80),#26,.F.);
#101=ADVANCED_FACE('',(#81,#82),#27,.F.);
#102=ADVANCED_FACE('',(#113),#50,.T.);
#103=ADVANCED_FACE('',(#83,#84),#61,.T.);
#104=ADVANCED_FACE('',(#114),#51,.F.);
#105=ADVANCED_FACE('',(#85,#86),#57,.T.);
#106=ADVANCED_FACE('',(#87,#88),#62,.T.);
#107=ADVANCED_FACE('',(#115),#52,.F.);
#108=SPHERICAL_SURFACE('',#262,9.525);
#109=SPHERICAL_SURFACE('',#282,9.1);
#110=FACE_OUTER_BOUND('',#116,.T.);
#111=FACE_OUTER_BOUND('',#121,.T.);
#112=FACE_OUTER_BOUND('',#132,.T.);
#113=FACE_OUTER_BOUND('',#139,.T.);
#114=FACE_OUTER_BOUND('',#142,.T.);
#115=FACE_OUTER_BOUND('',#147,.T.);
#116=EDGE_LOOP('',(#148));
#117=EDGE_LOOP('',(#149));
#118=EDGE_LOOP('',(#150));
#119=EDGE_LOOP('',(#151));
#120=EDGE_LOOP('',(#152));
#121=EDGE_LOOP('',(#153));
#122=EDGE_LOOP('',(#154));
#123=EDGE_LOOP('',(#155));
#124=EDGE_LOOP('',(#156));
#125=EDGE_LOOP('',(#157));
#126=EDGE_LOOP('',(#158));
#127=EDGE_LOOP('',(#159));
#128=EDGE_LOOP('',(#160));
#129=EDGE_LOOP('',(#161));
#130=EDGE_LOOP('',(#162));
#131=EDGE_LOOP('',(#163));
#132=EDGE_LOOP('',(#164));
#133=EDGE_LOOP('',(#165));
#134=EDGE_LOOP('',(#166));
#135=EDGE_LOOP('',(#167));
#136=EDGE_LOOP('',(#168));
#137=EDGE_LOOP('',(#169));
#138=EDGE_LOOP('',(#170));
#139=EDGE_LOOP('',(#171));
#140=EDGE_LOOP('',(#172));
#141=EDGE_LOOP('',(#173));
#142=EDGE_LOOP('',(#174));
#143=EDGE_LOOP('',(#175));
#144=EDGE_LOOP('',(#176));
#145=EDGE_LOOP('',(#177));
#146=EDGE_LOOP('',(#178));
#147=EDGE_LOOP('',(#179));
#148=ORIENTED_EDGE('',*,*,#196,.T.);
#149=ORIENTED_EDGE('',*,*,#197,.T.);
#150=ORIENTED_EDGE('',*,*,#196,.F.);
#151=ORIENTED_EDGE('',*,*,#198,.T.);
#152=ORIENTED_EDGE('',*,*,#197,.F.);
#153=ORIENTED_EDGE('',*,*,#198,.F.);
#154=ORIENTED_EDGE('',*,*,#199,.T.);
#155=ORIENTED_EDGE('',*,*,#200,.F.);
#156=ORIENTED_EDGE('',*,*,#201,.T.);
#157=ORIENTED_EDGE('',*,*,#202,.T.);
#158=ORIENTED_EDGE('',*,*,#203,.T.);
#159=ORIENTED_EDGE('',*,*,#204,.F.);
#160=ORIENTED_EDGE('',*,*,#205,.T.);
#161=ORIENTED_EDGE('',*,*,#204,.T.);
#162=ORIENTED_EDGE('',*,*,#206,.T.);
#163=ORIENTED_EDGE('',*,*,#207,.F.);
#164=ORIENTED_EDGE('',*,*,#207,.T.);
#165=ORIENTED_EDGE('',*,*,#199,.F.);
#166=ORIENTED_EDGE('',*,*,#202,.F.);
#167=ORIENTED_EDGE('',*,*,#205,.F.);
#168=ORIENTED_EDGE('',*,*,#206,.F.);
#169=ORIENTED_EDGE('',*,*,#201,.F.);
#170=ORIENTED_EDGE('',*,*,#203,.F.);
#171=ORIENTED_EDGE('',*,*,#208,.T.);
#172=ORIENTED_EDGE('',*,*,#200,.T.);
#173=ORIENTED_EDGE('',*,*,#208,.F.);
#174=ORIENTED_EDGE('',*,*,#209,.T.);
#175=ORIENTED_EDGE('',*,*,#209,.F.);
#176=ORIENTED_EDGE('',*,*,#210,.F.);
#177=ORIENTED_EDGE('',*,*,#211,.F.);
#178=ORIENTED_EDGE('',*,*,#210,.T.);
#179=ORIENTED_EDGE('',*,*,#211,.T.);
#180=VERTEX_POINT('',#382);
#181=VERTEX_POINT('',#385);
#182=VERTEX_POINT('',#388);
#183=VERTEX_POINT('',#392);
#184=VERTEX_POINT('',#394);
#185=VERTEX_POINT('',#397);
#186=VERTEX_POINT('',#399);
#187=VERTEX_POINT('',#402);
#188=VERTEX_POINT('',#404);
#189=VERTEX_POINT('',#407);
#190=VERTEX_POINT('',#410);
#191=VERTEX_POINT('',#412);
#192=VERTEX_POINT('',#419);
#193=VERTEX_POINT('',#423);
#194=VERTEX_POINT('',#426);
#195=VERTEX_POINT('',#429);
#196=EDGE_CURVE('',#180,#180,#212,.T.);
#197=EDGE_CURVE('',#181,#181,#213,.T.);
#198=EDGE_CURVE('',#182,#182,#214,.T.);
#199=EDGE_CURVE('',#183,#183,#215,.T.);
#200=EDGE_CURVE('',#184,#184,#216,.T.);
#201=EDGE_CURVE('',#185,#185,#217,.T.);
#202=EDGE_CURVE('',#186,#186,#218,.T.);
#203=EDGE_CURVE('',#187,#187,#219,.T.);
#204=EDGE_CURVE('',#188,#188,#220,.T.);
#205=EDGE_CURVE('',#189,#189,#221,.T.);
#206=EDGE_CURVE('',#190,#190,#222,.T.);
#207=EDGE_CURVE('',#191,#191,#223,.T.);
#208=EDGE_CURVE('',#192,#192,#224,.T.);
#209=EDGE_CURVE('',#193,#193,#225,.T.);
#210=EDGE_CURVE('',#194,#194,#226,.T.);
#211=EDGE_CURVE('',#195,#195,#227,.T.);
#212=CIRCLE('',#261,9.525);
#213=CIRCLE('',#263,9.525);
#214=CIRCLE('',#265,8.636);
#215=CIRCLE('',#268,8.72037086855465);
#216=CIRCLE('',#269,12.7);
#217=CIRCLE('',#271,8.55);
#218=CIRCLE('',#272,8.55);
#219=CIRCLE('',#274,8.62495377037068);
#220=CIRCLE('',#275,8.95);
#221=CIRCLE('',#277,8.95);
#222=CIRCLE('',#279,9.02495377037068);
#223=CIRCLE('',#280,9.09945053286186);
#224=CIRCLE('',#286,12.7);
#225=CIRCLE('',#289,11.7);
#226=CIRCLE('',#291,12.7);
#227=CIRCLE('',#293,12.7);
#228=PRESENTATION_LAYER_ASSIGNMENT('1','Layer 1',(#257,#258,#259,#260,#45));
#229=PRESENTATION_LAYER_ASSIGNMENT('3','Layer 3',(#43));
#230=PRESENTATION_LAYER_ASSIGNMENT('2','Layer 2',(#44));
#231=STYLED_ITEM('',(#238),#257);
#232=STYLED_ITEM('',(#239),#258);
#233=STYLED_ITEM('',(#240),#259);
#234=STYLED_ITEM('',(#241),#260);
#235=STYLED_ITEM('',(#242),#43);
#236=STYLED_ITEM('',(#243),#44);
#237=STYLED_ITEM('',(#244),#45);
#238=PRESENTATION_STYLE_ASSIGNMENT((#245));
#239=PRESENTATION_STYLE_ASSIGNMENT((#246));
#240=PRESENTATION_STYLE_ASSIGNMENT((#247));
#241=PRESENTATION_STYLE_ASSIGNMENT((#248));
#242=PRESENTATION_STYLE_ASSIGNMENT((#28));
#243=PRESENTATION_STYLE_ASSIGNMENT((#29));
#244=PRESENTATION_STYLE_ASSIGNMENT((#30));
#245=CURVE_STYLE('',#252,POSITIVE_LENGTH_MEASURE(0.18),#249);
#246=CURVE_STYLE('',#253,POSITIVE_LENGTH_MEASURE(0.18),#249);
#247=CURVE_STYLE('',#254,POSITIVE_LENGTH_MEASURE(0.18),#249);
#248=CURVE_STYLE('',#255,POSITIVE_LENGTH_MEASURE(0.18),#249);
#249=COLOUR_RGB('Medium Maroon',0.6,0.4,0.4);
#250=COLOUR_RGB('Light Gray',0.8,0.8,0.8);
#251=COLOUR_RGB('Medium Gray',0.490196078431373,0.490196078431373,0.490196078431373);
#252=DRAUGHTING_PRE_DEFINED_CURVE_FONT('continuous');
#253=DRAUGHTING_PRE_DEFINED_CURVE_FONT('continuous');
#254=DRAUGHTING_PRE_DEFINED_CURVE_FONT('continuous');
#255=DRAUGHTING_PRE_DEFINED_CURVE_FONT('continuous');
#256=AXIS2_PLACEMENT_3D('',#376,#296,#297);
#257=AXIS2_PLACEMENT_3D('PCS',#377,#298,#299);
#258=AXIS2_PLACEMENT_3D('MCS',#378,#300,#301);
#259=AXIS2_PLACEMENT_3D('CIP',#379,#302,#303);
#260=AXIS2_PLACEMENT_3D('LCS',#380,#304,#305);
#261=AXIS2_PLACEMENT_3D('',#381,#306,#307);
#262=AXIS2_PLACEMENT_3D('',#383,#308,#309);
#263=AXIS2_PLACEMENT_3D('',#384,#310,#311);
#264=AXIS2_PLACEMENT_3D('',#386,#312,#313);
#265=AXIS2_PLACEMENT_3D('',#387,#314,#315);
#266=AXIS2_PLACEMENT_3D('',#389,#316,#317);
#267=AXIS2_PLACEMENT_3D('',#390,#318,#319);
#268=AXIS2_PLACEMENT_3D('',#391,#320,#321);
#269=AXIS2_PLACEMENT_3D('',#393,#322,#323);
#270=AXIS2_PLACEMENT_3D('',#395,#324,#325);
#271=AXIS2_PLACEMENT_3D('',#396,#326,#327);
#272=AXIS2_PLACEMENT_3D('',#398,#328,#329);
#273=AXIS2_PLACEMENT_3D('',#400,#330,#331);
#274=AXIS2_PLACEMENT_3D('',#401,#332,#333);
#275=AXIS2_PLACEMENT_3D('',#403,#334,#335);
#276=AXIS2_PLACEMENT_3D('',#405,#336,#337);
#277=AXIS2_PLACEMENT_3D('',#406,#338,#339);
#278=AXIS2_PLACEMENT_3D('',#408,#340,#341);
#279=AXIS2_PLACEMENT_3D('',#409,#342,#343);
#280=AXIS2_PLACEMENT_3D('',#411,#344,#345);
#281=AXIS2_PLACEMENT_3D('',#413,#346,#347);
#282=AXIS2_PLACEMENT_3D('',#414,#348,#349);
#283=AXIS2_PLACEMENT_3D('',#415,#350,#351);
#284=AXIS2_PLACEMENT_3D('',#416,#352,#353);
#285=AXIS2_PLACEMENT_3D('',#417,#354,#355);
#286=AXIS2_PLACEMENT_3D('',#418,#356,#357);
#287=AXIS2_PLACEMENT_3D('',#420,#358,#359);
#288=AXIS2_PLACEMENT_3D('',#421,#360,#361);
#289=AXIS2_PLACEMENT_3D('',#422,#362,#363);
#290=AXIS2_PLACEMENT_3D('',#424,#364,#365);
#291=AXIS2_PLACEMENT_3D('',#425,#366,#367);
#292=AXIS2_PLACEMENT_3D('',#427,#368,#369);
#293=AXIS2_PLACEMENT_3D('',#428,#370,#371);
#294=AXIS2_PLACEMENT_3D('',#430,#372,#373);
#295=AXIS2_PLACEMENT_3D('',#431,#374,#375);
#296=DIRECTION('',(0.,0.,1.));
#297=DIRECTION('',(1.,0.,0.));
#298=DIRECTION('',(0.,0.,1.));
#299=DIRECTION('',(1.,0.,0.));
#300=DIRECTION('',(0.,0.,1.));
#301=DIRECTION('',(1.,0.,0.));
#302=DIRECTION('',(0.,0.,1.));
#303=DIRECTION('',(1.,0.,0.));
#304=DIRECTION('',(0.,0.,1.));
#305=DIRECTION('',(1.,0.,0.));
#306=DIRECTION('',(0.,0.,-1.));
#307=DIRECTION('',(-1.,0.,0.));
#308=DIRECTION('',(3.69778549322349E-32,0.,-1.));
#309=DIRECTION('',(-1.,0.,0.));
#310=DIRECTION('',(0.,0.,-1.));
#311=DIRECTION('',(-1.,0.,0.));
#312=DIRECTION('',(0.,0.,-1.));
#313=DIRECTION('',(1.,0.,0.));
#314=DIRECTION('',(0.,0.,-1.));
#315=DIRECTION('',(-1.,0.,0.));
#316=DIRECTION('',(0.,0.,-1.));
#317=DIRECTION('',(1.,0.,4.12405472112562E-17));
#318=DIRECTION('',(0.,0.,1.));
#319=DIRECTION('',(-1.,0.,0.));
#320=DIRECTION('',(0.,0.,1.));
#321=DIRECTION('',(1.,0.,0.));
#322=DIRECTION('',(0.,0.,1.));
#323=DIRECTION('',(1.,0.,0.));
#324=DIRECTION('',(0.,0.,1.));
#325=DIRECTION('',(-1.,0.,-1.73071074627344E-16));
#326=DIRECTION('',(0.,0.,1.));
#327=DIRECTION('',(-1.,0.,0.));
#328=DIRECTION('',(0.,0.,-1.));
#329=DIRECTION('',(-1.,0.,0.));
#330=DIRECTION('',(0.,0.,-1.));
#331=DIRECTION('',(1.,0.,0.));
#332=DIRECTION('',(0.,0.,-1.));
#333=DIRECTION('',(-1.,0.,0.));
#334=DIRECTION('',(0.,0.,-1.));
#335=DIRECTION('',(-1.,0.,0.));
#336=DIRECTION('',(0.,0.,-1.));
#337=DIRECTION('',(1.,0.,0.));
#338=DIRECTION('',(0.,0.,1.));
#339=DIRECTION('',(-1.,0.,0.));
#340=DIRECTION('',(0.,0.,-1.));
#341=DIRECTION('',(1.,0.,0.));
#342=DIRECTION('',(0.,0.,-1.));
#343=DIRECTION('',(-1.,0.,0.));
#344=DIRECTION('',(0.,0.,-1.));
#345=DIRECTION('',(-1.,0.,0.));
#346=DIRECTION('',(0.,0.,-1.));
#347=DIRECTION('',(1.,0.,1.46002779436416E-16));
#348=DIRECTION('',(3.69778549322349E-32,0.,-1.));
#349=DIRECTION('',(-1.,0.,0.));
#350=DIRECTION('',(0.,0.,-1.));
#351=DIRECTION('',(1.,0.,0.));
#352=DIRECTION('',(0.,0.,-1.));
#353=DIRECTION('',(1.,0.,0.));
#354=DIRECTION('',(0.,0.,-1.));
#355=DIRECTION('',(1.,0.,0.));
#356=DIRECTION('',(0.,0.,1.));
#357=DIRECTION('',(1.,0.,0.));
#358=DIRECTION('',(0.,0.,1.));
#359=DIRECTION('',(1.,0.,0.));
#360=DIRECTION('',(0.,0.,-1.));
#361=DIRECTION('',(1.,0.,0.));
#362=DIRECTION('',(0.,0.,1.));
#363=DIRECTION('',(-1.,0.,0.));
#364=DIRECTION('',(0.,0.,-1.));
#365=DIRECTION('',(1.,0.,0.));
#366=DIRECTION('',(0.,0.,-1.));
#367=DIRECTION('',(-1.,0.,0.));
#368=DIRECTION('',(0.,0.,-1.));
#369=DIRECTION('',(1.,0.,-1.37037501805218E-17));
#370=DIRECTION('',(0.,0.,-1.));
#371=DIRECTION('',(1.,0.,0.));
#372=DIRECTION('',(0.,0.,-1.));
#373=DIRECTION('',(1.,0.,0.));
#374=DIRECTION('',(0.,0.,1.));
#375=DIRECTION('',(1.,0.,0.));
#376=CARTESIAN_POINT('',(0.,0.,0.));
#377=CARTESIAN_POINT('',(0.,0.,63.5));
#378=CARTESIAN_POINT('',(0.,0.,0.));
#379=CARTESIAN_POINT('',(0.,0.,-89.7046));
#380=CARTESIAN_POINT('',(0.,0.,34.5));
#381=CARTESIAN_POINT('',(0.,0.,-80.1796));
#382=CARTESIAN_POINT('',(-9.525,0.,-80.1796));
#383=CARTESIAN_POINT('',(0.,0.,-80.1796));
#384=CARTESIAN_POINT('',(0.,0.,-62.7806));
#385=CARTESIAN_POINT('',(-9.525,0.,-62.7806));
#386=CARTESIAN_POINT('',(0.,0.,63.44));
#387=CARTESIAN_POINT('',(0.,0.,-61.8916));
#388=CARTESIAN_POINT('',(-8.636,0.,-61.8916));
#389=CARTESIAN_POINT('',(0.,0.,-62.7806));
#390=CARTESIAN_POINT('',(8.636,0.,-61.8916));
#391=CARTESIAN_POINT('',(0.,0.,-48.7021781138352));
#392=CARTESIAN_POINT('',(8.72037086855465,0.,-48.7021781138352));
#393=CARTESIAN_POINT('',(0.,0.,-33.85));
#394=CARTESIAN_POINT('',(12.7,0.,-33.85));
#395=CARTESIAN_POINT('',(0.,0.,-33.85));
#396=CARTESIAN_POINT('',(0.,0.,-62.8548415016818));
#397=CARTESIAN_POINT('',(-8.55,0.,-62.8548415016818));
#398=CARTESIAN_POINT('',(0.,0.,-49.9962733393478));
#399=CARTESIAN_POINT('',(-8.55,0.,-49.9962733393478));
#400=CARTESIAN_POINT('',(0.,0.,63.44));
#401=CARTESIAN_POINT('',(0.,0.,-63.1929361110744));
#402=CARTESIAN_POINT('',(-8.62495377037068,0.,-63.1929361110744));
#403=CARTESIAN_POINT('',(0.,0.,-63.89));
#404=CARTESIAN_POINT('',(-8.95,0.,-63.89));
#405=CARTESIAN_POINT('',(0.,0.,-63.0321972317962));
#406=CARTESIAN_POINT('',(0.,0.,-79.5921465678895));
#407=CARTESIAN_POINT('',(-8.95,0.,-79.5921465678895));
#408=CARTESIAN_POINT('',(0.,0.,63.44));
#409=CARTESIAN_POINT('',(0.,0.,-79.9302411772821));
#410=CARTESIAN_POINT('',(-9.02495377037068,0.,-79.9302411772821));
#411=CARTESIAN_POINT('',(0.,0.,-80.09));
#412=CARTESIAN_POINT('',(-9.09945053286186,0.,-80.09));
#413=CARTESIAN_POINT('',(0.,0.,-79.7695022980039));
#414=CARTESIAN_POINT('',(0.,0.,-80.19));
#415=CARTESIAN_POINT('',(0.,0.,-49.9962733393478));
#416=CARTESIAN_POINT('',(0.,0.,-79.5921465678895));
#417=CARTESIAN_POINT('',(0.,0.,-62.8548415016818));
#418=CARTESIAN_POINT('',(0.,0.,0.));
#419=CARTESIAN_POINT('',(12.7,0.,0.));
#420=CARTESIAN_POINT('',(0.,0.,0.));
#421=CARTESIAN_POINT('',(0.,0.,63.5));
#422=CARTESIAN_POINT('',(0.,0.,63.5));
#423=CARTESIAN_POINT('',(-11.7,0.,63.5));
#424=CARTESIAN_POINT('',(0.,0.,63.5));
#425=CARTESIAN_POINT('',(0.,0.,62.5));
#426=CARTESIAN_POINT('',(-12.7,0.,62.5));
#427=CARTESIAN_POINT('',(0.,0.,62.5));
#428=CARTESIAN_POINT('',(0.,0.,0.));
#429=CARTESIAN_POINT('',(12.7,0.,0.));
#430=CARTESIAN_POINT('',(0.,0.,63.5));
#431=CARTESIAN_POINT('',(0.,0.,0.));
#432=MECHANICAL_DESIGN_GEOMETRIC_PRESENTATION_REPRESENTATION('',(#231,#232,
#233,#234,#235,#236,#237),#433);
#433=(
GEOMETRIC_REPRESENTATION_CONTEXT(3)
GLOBAL_UNCERTAINTY_ASSIGNED_CONTEXT((#434))
GLOBAL_UNIT_ASSIGNED_CONTEXT((#440,#436,#435))
REPRESENTATION_CONTEXT('R218.19-00','TOP_LEVEL_ASSEMBLY_PART')
);
#434=UNCERTAINTY_MEASURE_WITH_UNIT(LENGTH_MEASURE(2.E-5),#440,
'DISTANCE_ACCURACY_VALUE','Maximum Tolerance applied to model');
#435=(
NAMED_UNIT(*)
SI_UNIT($,.STERADIAN.)
SOLID_ANGLE_UNIT()
);
#436=(
CONVERSION_BASED_UNIT('DEGREE',#438)
NAMED_UNIT(#437)
PLANE_ANGLE_UNIT()
);
#437=DIMENSIONAL_EXPONENTS(0.,0.,0.,0.,0.,0.,0.);
#438=PLANE_ANGLE_MEASURE_WITH_UNIT(PLANE_ANGLE_MEASURE(0.0174532925),#439);
#439=(
NAMED_UNIT(*)
PLANE_ANGLE_UNIT()
SI_UNIT($,.RADIAN.)
);
#440=(
LENGTH_UNIT()
NAMED_UNIT(*)
SI_UNIT(.MILLI.,.METRE.)
);
ENDSEC;
END-ISO-10303-21;
