ISO-10303-21;
HEADER;
/* Generated by software containing ST-Developer
 * from STEP Tools, Inc. (www.steptools.com) 
 */
/* OPTION: using custom schema-name function */

FILE_DESCRIPTION(
/* description */ (''),
/* implementation_level */ '2;1');

FILE_NAME(
/* name */ 'R218.19-00.75-3-21M.stp',
/* time_stamp */ '2017-09-14T10:16:53+06:00',
/* author */ (''),
/* organization */ (''),
/* preprocessor_version */ 'ST-DEVELOPER v16',
/* originating_system */ 'SIEMENS PLM Software NX 11.0',
/* authorisation */ '');

FILE_SCHEMA (('AUTOMOTIVE_DESIGN { 1 0 10303 214 3 1 1 1 }'));
ENDSEC;

DATA;
#10=CONSTRUCTIVE_GEOMETRY_REPRESENTATION_RELATIONSHIP(
'supplemental geometry','',#24,#11);
#11=CONSTRUCTIVE_GEOMETRY_REPRESENTATION('supplemental geometry',(#225,
#226,#227,#228),#374);
#12=SHAPE_REPRESENTATION_RELATIONSHIP('None',
'relationship between R218.19-00.75-3-21M-None and R218.19-00.75-3-21M
-None',#24,#13);
#13=ADVANCED_BREP_SHAPE_REPRESENTATION('R218.19-00.75-3-21M-None',(#40,
#41,#42),#374);
#14=SHAPE_DEFINITION_REPRESENTATION(#15,#24);
#15=PRODUCT_DEFINITION_SHAPE('','',#16);
#16=PRODUCT_DEFINITION(' ','',#18,#17);
#17=PRODUCT_DEFINITION_CONTEXT('part definition',#23,'design');
#18=PRODUCT_DEFINITION_FORMATION_WITH_SPECIFIED_SOURCE(' ',' ',#20,
 .NOT_KNOWN.);
#19=PRODUCT_RELATED_PRODUCT_CATEGORY('part','',(#20));
#20=PRODUCT('R218.19-00.75-3-21M','R218.19-00.75-3-21M',' ',(#21));
#21=PRODUCT_CONTEXT(' ',#23,'mechanical');
#22=APPLICATION_PROTOCOL_DEFINITION('international standard',
'automotive_design',2010,#23);
#23=APPLICATION_CONTEXT(
'core data for automotive mechanical design processes');
#24=SHAPE_REPRESENTATION('R218.19-00.75-3-21M-None',(#224),#374);
#25=SURFACE_STYLE_USAGE(.BOTH.,#28);
#26=SURFACE_STYLE_USAGE(.BOTH.,#29);
#27=SURFACE_STYLE_USAGE(.BOTH.,#30);
#28=SURFACE_SIDE_STYLE('',(#31));
#29=SURFACE_SIDE_STYLE('',(#32));
#30=SURFACE_SIDE_STYLE('',(#33));
#31=SURFACE_STYLE_FILL_AREA(#34);
#32=SURFACE_STYLE_FILL_AREA(#35);
#33=SURFACE_STYLE_FILL_AREA(#36);
#34=FILL_AREA_STYLE('',(#37));
#35=FILL_AREA_STYLE('',(#38));
#36=FILL_AREA_STYLE('',(#39));
#37=FILL_AREA_STYLE_COLOUR('',#218);
#38=FILL_AREA_STYLE_COLOUR('',#219);
#39=FILL_AREA_STYLE_COLOUR('',#219);
#40=MANIFOLD_SOLID_BREP('CUT',#43);
#41=MANIFOLD_SOLID_BREP('NOCUT',#44);
#42=MANIFOLD_SOLID_BREP('NOCUT',#45);
#43=CLOSED_SHELL('',(#80,#81,#82,#83));
#44=CLOSED_SHELL('',(#84,#85,#86,#87,#88,#89,#90,#91));
#45=CLOSED_SHELL('',(#92,#93,#94,#95));
#46=PLANE('',#235);
#47=PLANE('',#250);
#48=PLANE('',#252);
#49=PLANE('',#257);
#50=CONICAL_SURFACE('',#234,9.525,45.);
#51=CONICAL_SURFACE('',#240,9.525,15.);
#52=CONICAL_SURFACE('',#244,8.55,25.);
#53=CONICAL_SURFACE('',#248,8.95,25.0000000000002);
#54=CONICAL_SURFACE('',#254,9.525,44.9999999999999);
#55=CYLINDRICAL_SURFACE('',#232,9.525);
#56=CYLINDRICAL_SURFACE('',#238,9.525);
#57=CYLINDRICAL_SURFACE('',#242,8.55);
#58=CYLINDRICAL_SURFACE('',#246,8.95);
#59=CYLINDRICAL_SURFACE('',#256,9.525);
#60=FACE_BOUND('',#105,.T.);
#61=FACE_BOUND('',#106,.T.);
#62=FACE_BOUND('',#107,.T.);
#63=FACE_BOUND('',#108,.T.);
#64=FACE_BOUND('',#110,.T.);
#65=FACE_BOUND('',#111,.T.);
#66=FACE_BOUND('',#112,.T.);
#67=FACE_BOUND('',#113,.T.);
#68=FACE_BOUND('',#114,.T.);
#69=FACE_BOUND('',#115,.T.);
#70=FACE_BOUND('',#116,.T.);
#71=FACE_BOUND('',#117,.T.);
#72=FACE_BOUND('',#118,.T.);
#73=FACE_BOUND('',#119,.T.);
#74=FACE_BOUND('',#120,.T.);
#75=FACE_BOUND('',#121,.T.);
#76=FACE_BOUND('',#125,.T.);
#77=FACE_BOUND('',#126,.T.);
#78=FACE_BOUND('',#127,.T.);
#79=FACE_BOUND('',#128,.T.);
#80=ADVANCED_FACE('',(#98),#96,.T.);
#81=ADVANCED_FACE('',(#60,#61),#55,.T.);
#82=ADVANCED_FACE('',(#62,#63),#50,.T.);
#83=ADVANCED_FACE('',(#99),#46,.T.);
#84=ADVANCED_FACE('',(#64,#65),#56,.T.);
#85=ADVANCED_FACE('',(#66,#67),#51,.T.);
#86=ADVANCED_FACE('',(#68,#69),#57,.T.);
#87=ADVANCED_FACE('',(#70,#71),#52,.T.);
#88=ADVANCED_FACE('',(#72,#73),#58,.T.);
#89=ADVANCED_FACE('',(#74,#75),#53,.T.);
#90=ADVANCED_FACE('',(#100),#97,.T.);
#91=ADVANCED_FACE('',(#101),#47,.T.);
#92=ADVANCED_FACE('',(#102),#48,.F.);
#93=ADVANCED_FACE('',(#76,#77),#54,.T.);
#94=ADVANCED_FACE('',(#78,#79),#59,.T.);
#95=ADVANCED_FACE('',(#103),#49,.F.);
#96=SPHERICAL_SURFACE('',#230,9.52499999999999);
#97=SPHERICAL_SURFACE('',#249,9.1);
#98=FACE_OUTER_BOUND('',#104,.T.);
#99=FACE_OUTER_BOUND('',#109,.T.);
#100=FACE_OUTER_BOUND('',#122,.T.);
#101=FACE_OUTER_BOUND('',#123,.T.);
#102=FACE_OUTER_BOUND('',#124,.T.);
#103=FACE_OUTER_BOUND('',#129,.T.);
#104=EDGE_LOOP('',(#130));
#105=EDGE_LOOP('',(#131));
#106=EDGE_LOOP('',(#132));
#107=EDGE_LOOP('',(#133));
#108=EDGE_LOOP('',(#134));
#109=EDGE_LOOP('',(#135));
#110=EDGE_LOOP('',(#136));
#111=EDGE_LOOP('',(#137));
#112=EDGE_LOOP('',(#138));
#113=EDGE_LOOP('',(#139));
#114=EDGE_LOOP('',(#140));
#115=EDGE_LOOP('',(#141));
#116=EDGE_LOOP('',(#142));
#117=EDGE_LOOP('',(#143));
#118=EDGE_LOOP('',(#144));
#119=EDGE_LOOP('',(#145));
#120=EDGE_LOOP('',(#146));
#121=EDGE_LOOP('',(#147));
#122=EDGE_LOOP('',(#148));
#123=EDGE_LOOP('',(#149));
#124=EDGE_LOOP('',(#150));
#125=EDGE_LOOP('',(#151));
#126=EDGE_LOOP('',(#152));
#127=EDGE_LOOP('',(#153));
#128=EDGE_LOOP('',(#154));
#129=EDGE_LOOP('',(#155));
#130=ORIENTED_EDGE('',*,*,#169,.T.);
#131=ORIENTED_EDGE('',*,*,#170,.T.);
#132=ORIENTED_EDGE('',*,*,#169,.F.);
#133=ORIENTED_EDGE('',*,*,#171,.T.);
#134=ORIENTED_EDGE('',*,*,#170,.F.);
#135=ORIENTED_EDGE('',*,*,#171,.F.);
#136=ORIENTED_EDGE('',*,*,#172,.F.);
#137=ORIENTED_EDGE('',*,*,#173,.F.);
#138=ORIENTED_EDGE('',*,*,#174,.F.);
#139=ORIENTED_EDGE('',*,*,#172,.T.);
#140=ORIENTED_EDGE('',*,*,#175,.F.);
#141=ORIENTED_EDGE('',*,*,#174,.T.);
#142=ORIENTED_EDGE('',*,*,#176,.F.);
#143=ORIENTED_EDGE('',*,*,#175,.T.);
#144=ORIENTED_EDGE('',*,*,#177,.F.);
#145=ORIENTED_EDGE('',*,*,#176,.T.);
#146=ORIENTED_EDGE('',*,*,#178,.F.);
#147=ORIENTED_EDGE('',*,*,#177,.T.);
#148=ORIENTED_EDGE('',*,*,#178,.T.);
#149=ORIENTED_EDGE('',*,*,#173,.T.);
#150=ORIENTED_EDGE('',*,*,#179,.T.);
#151=ORIENTED_EDGE('',*,*,#179,.F.);
#152=ORIENTED_EDGE('',*,*,#180,.F.);
#153=ORIENTED_EDGE('',*,*,#181,.T.);
#154=ORIENTED_EDGE('',*,*,#180,.T.);
#155=ORIENTED_EDGE('',*,*,#181,.F.);
#156=VERTEX_POINT('',#332);
#157=VERTEX_POINT('',#335);
#158=VERTEX_POINT('',#338);
#159=VERTEX_POINT('',#342);
#160=VERTEX_POINT('',#344);
#161=VERTEX_POINT('',#347);
#162=VERTEX_POINT('',#350);
#163=VERTEX_POINT('',#353);
#164=VERTEX_POINT('',#356);
#165=VERTEX_POINT('',#359);
#166=VERTEX_POINT('',#364);
#167=VERTEX_POINT('',#367);
#168=VERTEX_POINT('',#370);
#169=EDGE_CURVE('',#156,#156,#182,.T.);
#170=EDGE_CURVE('',#157,#157,#183,.T.);
#171=EDGE_CURVE('',#158,#158,#184,.T.);
#172=EDGE_CURVE('',#159,#159,#185,.T.);
#173=EDGE_CURVE('',#160,#160,#186,.T.);
#174=EDGE_CURVE('',#161,#161,#187,.T.);
#175=EDGE_CURVE('',#162,#162,#188,.T.);
#176=EDGE_CURVE('',#163,#163,#189,.T.);
#177=EDGE_CURVE('',#164,#164,#190,.T.);
#178=EDGE_CURVE('',#165,#165,#191,.T.);
#179=EDGE_CURVE('',#166,#166,#192,.T.);
#180=EDGE_CURVE('',#167,#167,#193,.T.);
#181=EDGE_CURVE('',#168,#168,#194,.T.);
#182=CIRCLE('',#229,9.52499999999999);
#183=CIRCLE('',#231,9.525);
#184=CIRCLE('',#233,8.636);
#185=CIRCLE('',#236,9.525);
#186=CIRCLE('',#237,9.525);
#187=CIRCLE('',#239,8.55);
#188=CIRCLE('',#241,8.55);
#189=CIRCLE('',#243,8.95);
#190=CIRCLE('',#245,8.95);
#191=CIRCLE('',#247,9.09945053286186);
#192=CIRCLE('',#251,9.025);
#193=CIRCLE('',#253,9.525);
#194=CIRCLE('',#255,9.525);
#195=PRESENTATION_LAYER_ASSIGNMENT('1','Layer 1',(#225,#226,#227,#228,#42));
#196=PRESENTATION_LAYER_ASSIGNMENT('3','Layer 3',(#40));
#197=PRESENTATION_LAYER_ASSIGNMENT('2','Layer 2',(#41));
#198=STYLED_ITEM('',(#205),#225);
#199=STYLED_ITEM('',(#206),#226);
#200=STYLED_ITEM('',(#207),#227);
#201=STYLED_ITEM('',(#208),#228);
#202=STYLED_ITEM('',(#209),#40);
#203=STYLED_ITEM('',(#210),#41);
#204=STYLED_ITEM('',(#211),#42);
#205=PRESENTATION_STYLE_ASSIGNMENT((#212));
#206=PRESENTATION_STYLE_ASSIGNMENT((#213));
#207=PRESENTATION_STYLE_ASSIGNMENT((#214));
#208=PRESENTATION_STYLE_ASSIGNMENT((#215));
#209=PRESENTATION_STYLE_ASSIGNMENT((#25));
#210=PRESENTATION_STYLE_ASSIGNMENT((#26));
#211=PRESENTATION_STYLE_ASSIGNMENT((#27));
#212=CURVE_STYLE('',#220,POSITIVE_LENGTH_MEASURE(0.18),#216);
#213=CURVE_STYLE('',#221,POSITIVE_LENGTH_MEASURE(0.18),#216);
#214=CURVE_STYLE('',#222,POSITIVE_LENGTH_MEASURE(0.18),#216);
#215=CURVE_STYLE('',#223,POSITIVE_LENGTH_MEASURE(0.18),#217);
#216=COLOUR_RGB('Strong Stone',0.576470588235294,0.54508278019379,0.392156862745098);
#217=COLOUR_RGB('Medium Maroon',0.6,0.4,0.4);
#218=COLOUR_RGB('Light Gray',0.8,0.8,0.8);
#219=COLOUR_RGB('Medium Gray',0.490196078431373,0.490196078431373,0.490196078431373);
#220=DRAUGHTING_PRE_DEFINED_CURVE_FONT('continuous');
#221=DRAUGHTING_PRE_DEFINED_CURVE_FONT('continuous');
#222=DRAUGHTING_PRE_DEFINED_CURVE_FONT('continuous');
#223=DRAUGHTING_PRE_DEFINED_CURVE_FONT('continuous');
#224=AXIS2_PLACEMENT_3D('',#326,#258,#259);
#225=AXIS2_PLACEMENT_3D('MCS',#327,#260,#261);
#226=AXIS2_PLACEMENT_3D('LCS',#328,#262,#263);
#227=AXIS2_PLACEMENT_3D('CIP',#329,#264,#265);
#228=AXIS2_PLACEMENT_3D('PCS',#330,#266,#267);
#229=AXIS2_PLACEMENT_3D('',#331,#268,#269);
#230=AXIS2_PLACEMENT_3D('',#333,#270,#271);
#231=AXIS2_PLACEMENT_3D('',#334,#272,#273);
#232=AXIS2_PLACEMENT_3D('',#336,#274,#275);
#233=AXIS2_PLACEMENT_3D('',#337,#276,#277);
#234=AXIS2_PLACEMENT_3D('',#339,#278,#279);
#235=AXIS2_PLACEMENT_3D('',#340,#280,#281);
#236=AXIS2_PLACEMENT_3D('',#341,#282,#283);
#237=AXIS2_PLACEMENT_3D('',#343,#284,#285);
#238=AXIS2_PLACEMENT_3D('',#345,#286,#287);
#239=AXIS2_PLACEMENT_3D('',#346,#288,#289);
#240=AXIS2_PLACEMENT_3D('',#348,#290,#291);
#241=AXIS2_PLACEMENT_3D('',#349,#292,#293);
#242=AXIS2_PLACEMENT_3D('',#351,#294,#295);
#243=AXIS2_PLACEMENT_3D('',#352,#296,#297);
#244=AXIS2_PLACEMENT_3D('',#354,#298,#299);
#245=AXIS2_PLACEMENT_3D('',#355,#300,#301);
#246=AXIS2_PLACEMENT_3D('',#357,#302,#303);
#247=AXIS2_PLACEMENT_3D('',#358,#304,#305);
#248=AXIS2_PLACEMENT_3D('',#360,#306,#307);
#249=AXIS2_PLACEMENT_3D('',#361,#308,#309);
#250=AXIS2_PLACEMENT_3D('',#362,#310,#311);
#251=AXIS2_PLACEMENT_3D('',#363,#312,#313);
#252=AXIS2_PLACEMENT_3D('',#365,#314,#315);
#253=AXIS2_PLACEMENT_3D('',#366,#316,#317);
#254=AXIS2_PLACEMENT_3D('',#368,#318,#319);
#255=AXIS2_PLACEMENT_3D('',#369,#320,#321);
#256=AXIS2_PLACEMENT_3D('',#371,#322,#323);
#257=AXIS2_PLACEMENT_3D('',#372,#324,#325);
#258=DIRECTION('',(0.,0.,1.));
#259=DIRECTION('',(1.,0.,0.));
#260=DIRECTION('',(0.,0.,1.));
#261=DIRECTION('',(1.,0.,0.));
#262=DIRECTION('',(0.,0.,1.));
#263=DIRECTION('',(1.,0.,0.));
#264=DIRECTION('',(0.,0.,1.));
#265=DIRECTION('',(1.,0.,0.));
#266=DIRECTION('',(0.,0.,1.));
#267=DIRECTION('',(1.,0.,0.));
#268=DIRECTION('',(0.,0.,-1.));
#269=DIRECTION('',(-1.,0.,0.));
#270=DIRECTION('',(3.69778549322349E-32,0.,-1.));
#271=DIRECTION('',(-1.,0.,0.));
#272=DIRECTION('',(0.,0.,-1.));
#273=DIRECTION('',(-1.,0.,0.));
#274=DIRECTION('',(0.,0.,-1.));
#275=DIRECTION('',(1.,0.,0.));
#276=DIRECTION('',(0.,0.,-1.));
#277=DIRECTION('',(-1.,0.,0.));
#278=DIRECTION('',(0.,0.,-1.));
#279=DIRECTION('',(1.,0.,-6.87342453520936E-18));
#280=DIRECTION('',(0.,0.,1.));
#281=DIRECTION('',(-1.,0.,0.));
#282=DIRECTION('',(0.,0.,-1.));
#283=DIRECTION('',(-1.,0.,0.));
#284=DIRECTION('',(0.,0.,1.));
#285=DIRECTION('',(1.,0.,0.));
#286=DIRECTION('',(0.,0.,-1.));
#287=DIRECTION('',(1.,0.,0.));
#288=DIRECTION('',(0.,0.,-1.));
#289=DIRECTION('',(-1.,0.,0.));
#290=DIRECTION('',(0.,0.,1.));
#291=DIRECTION('',(-1.,0.,1.25036743833927E-16));
#292=DIRECTION('',(0.,0.,-1.));
#293=DIRECTION('',(-1.,0.,0.));
#294=DIRECTION('',(0.,0.,-1.));
#295=DIRECTION('',(1.,0.,0.));
#296=DIRECTION('',(0.,0.,-1.));
#297=DIRECTION('',(-1.,0.,0.));
#298=DIRECTION('',(0.,0.,-1.));
#299=DIRECTION('',(1.,0.,-1.31513189400392E-16));
#300=DIRECTION('',(0.,0.,-1.));
#301=DIRECTION('',(-1.,0.,0.));
#302=DIRECTION('',(0.,0.,-1.));
#303=DIRECTION('',(1.,0.,0.));
#304=DIRECTION('',(0.,0.,-1.));
#305=DIRECTION('',(-1.,0.,0.));
#306=DIRECTION('',(0.,0.,-1.));
#307=DIRECTION('',(1.,0.,1.46002779436416E-16));
#308=DIRECTION('',(3.69778549322349E-32,0.,-1.));
#309=DIRECTION('',(-1.,0.,0.));
#310=DIRECTION('',(0.,0.,1.));
#311=DIRECTION('',(-1.,0.,0.));
#312=DIRECTION('',(0.,0.,1.));
#313=DIRECTION('',(-1.,0.,0.));
#314=DIRECTION('',(0.,0.,-1.));
#315=DIRECTION('',(1.,0.,0.));
#316=DIRECTION('',(0.,0.,-1.));
#317=DIRECTION('',(-1.,0.,0.));
#318=DIRECTION('',(0.,0.,-1.));
#319=DIRECTION('',(1.,0.,3.43671226760469E-17));
#320=DIRECTION('',(0.,0.,1.));
#321=DIRECTION('',(1.,0.,0.));
#322=DIRECTION('',(0.,0.,-1.));
#323=DIRECTION('',(1.,0.,0.));
#324=DIRECTION('',(0.,0.,1.));
#325=DIRECTION('',(-1.,0.,0.));
#326=CARTESIAN_POINT('',(0.,0.,0.));
#327=CARTESIAN_POINT('',(0.,0.,0.));
#328=CARTESIAN_POINT('',(0.,0.,25.8));
#329=CARTESIAN_POINT('',(0.,0.,-50.8));
#330=CARTESIAN_POINT('',(0.,0.,51.6));
#331=CARTESIAN_POINT('',(0.,0.,-41.275));
#332=CARTESIAN_POINT('',(-9.52499999999999,0.,-41.275));
#333=CARTESIAN_POINT('',(0.,0.,-41.275));
#334=CARTESIAN_POINT('',(0.,0.,-28.702));
#335=CARTESIAN_POINT('',(-9.525,0.,-28.702));
#336=CARTESIAN_POINT('',(0.,0.,51.4858));
#337=CARTESIAN_POINT('',(0.,0.,-27.813));
#338=CARTESIAN_POINT('',(-8.636,0.,-27.813));
#339=CARTESIAN_POINT('',(0.,0.,-28.702));
#340=CARTESIAN_POINT('',(8.636,0.,-27.813));
#341=CARTESIAN_POINT('',(0.,0.,-14.01));
#342=CARTESIAN_POINT('',(-9.525,0.,-14.01));
#343=CARTESIAN_POINT('',(0.,0.,0.));
#344=CARTESIAN_POINT('',(9.525,0.,0.));
#345=CARTESIAN_POINT('',(0.,0.,49.9618));
#346=CARTESIAN_POINT('',(0.,0.,-17.6487495373797));
#347=CARTESIAN_POINT('',(-8.55,0.,-17.6487495373797));
#348=CARTESIAN_POINT('',(0.,0.,-14.01));
#349=CARTESIAN_POINT('',(0.,0.,-29.6221972317962));
#350=CARTESIAN_POINT('',(-8.55,0.,-29.6221972317962));
#351=CARTESIAN_POINT('',(0.,0.,51.6));
#352=CARTESIAN_POINT('',(0.,0.,-30.48));
#353=CARTESIAN_POINT('',(-8.95,0.,-30.48));
#354=CARTESIAN_POINT('',(0.,0.,-29.6221972317962));
#355=CARTESIAN_POINT('',(0.,0.,-40.8595022980039));
#356=CARTESIAN_POINT('',(-8.95,0.,-40.8595022980039));
#357=CARTESIAN_POINT('',(0.,0.,51.6));
#358=CARTESIAN_POINT('',(0.,0.,-41.18));
#359=CARTESIAN_POINT('',(-9.09945053286186,0.,-41.18));
#360=CARTESIAN_POINT('',(0.,0.,-40.8595022980039));
#361=CARTESIAN_POINT('',(0.,0.,-41.28));
#362=CARTESIAN_POINT('',(0.,0.,0.));
#363=CARTESIAN_POINT('',(0.,0.,51.6));
#364=CARTESIAN_POINT('',(-9.025,0.,51.6));
#365=CARTESIAN_POINT('',(0.,0.,51.6));
#366=CARTESIAN_POINT('',(0.,0.,51.1));
#367=CARTESIAN_POINT('',(-9.525,0.,51.1));
#368=CARTESIAN_POINT('',(0.,0.,51.1));
#369=CARTESIAN_POINT('',(0.,0.,0.));
#370=CARTESIAN_POINT('',(9.525,0.,0.));
#371=CARTESIAN_POINT('',(0.,0.,49.9618));
#372=CARTESIAN_POINT('',(0.,0.,0.));
#373=MECHANICAL_DESIGN_GEOMETRIC_PRESENTATION_REPRESENTATION('',(#198,#199,
#200,#201,#202,#203,#204),#374);
#374=(
GEOMETRIC_REPRESENTATION_CONTEXT(3)
GLOBAL_UNCERTAINTY_ASSIGNED_CONTEXT((#375))
GLOBAL_UNIT_ASSIGNED_CONTEXT((#381,#377,#376))
REPRESENTATION_CONTEXT('R218.19-00','TOP_LEVEL_ASSEMBLY_PART')
);
#375=UNCERTAINTY_MEASURE_WITH_UNIT(LENGTH_MEASURE(2.E-5),#381,
'DISTANCE_ACCURACY_VALUE','Maximum Tolerance applied to model');
#376=(
NAMED_UNIT(*)
SI_UNIT($,.STERADIAN.)
SOLID_ANGLE_UNIT()
);
#377=(
CONVERSION_BASED_UNIT('DEGREE',#379)
NAMED_UNIT(#378)
PLANE_ANGLE_UNIT()
);
#378=DIMENSIONAL_EXPONENTS(0.,0.,0.,0.,0.,0.,0.);
#379=PLANE_ANGLE_MEASURE_WITH_UNIT(PLANE_ANGLE_MEASURE(0.0174532925),#380);
#380=(
NAMED_UNIT(*)
PLANE_ANGLE_UNIT()
SI_UNIT($,.RADIAN.)
);
#381=(
LENGTH_UNIT()
NAMED_UNIT(*)
SI_UNIT(.MILLI.,.METRE.)
);
ENDSEC;
END-ISO-10303-21;
