ISO-10303-21;
HEADER;
/* Generated by software containing ST-Developer
 * from STEP Tools, Inc. (www.steptools.com) 
 */
/* OPTION: using custom schema-name function */

FILE_DESCRIPTION(
/* description */ (''),
/* implementation_level */ '2;1');

FILE_NAME(
/* name */ 'R218.19-00.62-3-17M.stp',
/* time_stamp */ '2017-09-14T10:16:53+06:00',
/* author */ (''),
/* organization */ (''),
/* preprocessor_version */ 'ST-DEVELOPER v16',
/* originating_system */ 'SIEMENS PLM Software NX 11.0',
/* authorisation */ '');

FILE_SCHEMA (('AUTOMOTIVE_DESIGN { 1 0 10303 214 3 1 1 1 }'));
ENDSEC;

DATA;
#10=CONSTRUCTIVE_GEOMETRY_REPRESENTATION_RELATIONSHIP(
'supplemental geometry','',#24,#11);
#11=CONSTRUCTIVE_GEOMETRY_REPRESENTATION('supplemental geometry',(#224,
#225,#226,#227),#373);
#12=SHAPE_REPRESENTATION_RELATIONSHIP('None',
'relationship between R218.19-00.62-3-17M-None and R218.19-00.62-3-17M
-None',#24,#13);
#13=ADVANCED_BREP_SHAPE_REPRESENTATION('R218.19-00.62-3-17M-None',(#40,
#41,#42),#373);
#14=SHAPE_DEFINITION_REPRESENTATION(#15,#24);
#15=PRODUCT_DEFINITION_SHAPE('','',#16);
#16=PRODUCT_DEFINITION(' ','',#18,#17);
#17=PRODUCT_DEFINITION_CONTEXT('part definition',#23,'design');
#18=PRODUCT_DEFINITION_FORMATION_WITH_SPECIFIED_SOURCE(' ',' ',#20,
 .NOT_KNOWN.);
#19=PRODUCT_RELATED_PRODUCT_CATEGORY('part','',(#20));
#20=PRODUCT('R218.19-00.62-3-17M','R218.19-00.62-3-17M',' ',(#21));
#21=PRODUCT_CONTEXT(' ',#23,'mechanical');
#22=APPLICATION_PROTOCOL_DEFINITION('international standard',
'automotive_design',2010,#23);
#23=APPLICATION_CONTEXT(
'core data for automotive mechanical design processes');
#24=SHAPE_REPRESENTATION('R218.19-00.62-3-17M-None',(#223),#373);
#25=SURFACE_STYLE_USAGE(.BOTH.,#28);
#26=SURFACE_STYLE_USAGE(.BOTH.,#29);
#27=SURFACE_STYLE_USAGE(.BOTH.,#30);
#28=SURFACE_SIDE_STYLE('',(#31));
#29=SURFACE_SIDE_STYLE('',(#32));
#30=SURFACE_SIDE_STYLE('',(#33));
#31=SURFACE_STYLE_FILL_AREA(#34);
#32=SURFACE_STYLE_FILL_AREA(#35);
#33=SURFACE_STYLE_FILL_AREA(#36);
#34=FILL_AREA_STYLE('',(#37));
#35=FILL_AREA_STYLE('',(#38));
#36=FILL_AREA_STYLE('',(#39));
#37=FILL_AREA_STYLE_COLOUR('',#217);
#38=FILL_AREA_STYLE_COLOUR('',#218);
#39=FILL_AREA_STYLE_COLOUR('',#218);
#40=MANIFOLD_SOLID_BREP('CUT',#43);
#41=MANIFOLD_SOLID_BREP('NOCUT',#44);
#42=MANIFOLD_SOLID_BREP('NOCUT',#45);
#43=CLOSED_SHELL('',(#80,#81,#82,#83));
#44=CLOSED_SHELL('',(#84,#85,#86,#87,#88,#89,#90,#91));
#45=CLOSED_SHELL('',(#92,#93,#94,#95));
#46=PLANE('',#234);
#47=PLANE('',#249);
#48=PLANE('',#251);
#49=PLANE('',#256);
#50=CONICAL_SURFACE('',#233,7.9375,45.0000000000001);
#51=CONICAL_SURFACE('',#239,7.94,15.);
#52=CONICAL_SURFACE('',#243,7.05,24.9999999999998);
#53=CONICAL_SURFACE('',#247,7.45,25.0000000000002);
#54=CONICAL_SURFACE('',#253,7.94,45.);
#55=CYLINDRICAL_SURFACE('',#231,7.93749999999998);
#56=CYLINDRICAL_SURFACE('',#237,7.94);
#57=CYLINDRICAL_SURFACE('',#241,7.05);
#58=CYLINDRICAL_SURFACE('',#245,7.45);
#59=CYLINDRICAL_SURFACE('',#255,7.94);
#60=FACE_BOUND('',#105,.T.);
#61=FACE_BOUND('',#106,.T.);
#62=FACE_BOUND('',#107,.T.);
#63=FACE_BOUND('',#108,.T.);
#64=FACE_BOUND('',#110,.T.);
#65=FACE_BOUND('',#111,.T.);
#66=FACE_BOUND('',#112,.T.);
#67=FACE_BOUND('',#113,.T.);
#68=FACE_BOUND('',#114,.T.);
#69=FACE_BOUND('',#115,.T.);
#70=FACE_BOUND('',#116,.T.);
#71=FACE_BOUND('',#117,.T.);
#72=FACE_BOUND('',#118,.T.);
#73=FACE_BOUND('',#119,.T.);
#74=FACE_BOUND('',#120,.T.);
#75=FACE_BOUND('',#121,.T.);
#76=FACE_BOUND('',#125,.T.);
#77=FACE_BOUND('',#126,.T.);
#78=FACE_BOUND('',#127,.T.);
#79=FACE_BOUND('',#128,.T.);
#80=ADVANCED_FACE('',(#98),#96,.T.);
#81=ADVANCED_FACE('',(#60,#61),#55,.T.);
#82=ADVANCED_FACE('',(#62,#63),#50,.T.);
#83=ADVANCED_FACE('',(#99),#46,.T.);
#84=ADVANCED_FACE('',(#64,#65),#56,.T.);
#85=ADVANCED_FACE('',(#66,#67),#51,.T.);
#86=ADVANCED_FACE('',(#68,#69),#57,.T.);
#87=ADVANCED_FACE('',(#70,#71),#52,.T.);
#88=ADVANCED_FACE('',(#72,#73),#58,.T.);
#89=ADVANCED_FACE('',(#74,#75),#53,.T.);
#90=ADVANCED_FACE('',(#100),#97,.T.);
#91=ADVANCED_FACE('',(#101),#47,.T.);
#92=ADVANCED_FACE('',(#102),#48,.F.);
#93=ADVANCED_FACE('',(#76,#77),#54,.T.);
#94=ADVANCED_FACE('',(#78,#79),#59,.T.);
#95=ADVANCED_FACE('',(#103),#49,.F.);
#96=SPHERICAL_SURFACE('',#229,7.9375);
#97=SPHERICAL_SURFACE('',#248,7.6);
#98=FACE_OUTER_BOUND('',#104,.T.);
#99=FACE_OUTER_BOUND('',#109,.T.);
#100=FACE_OUTER_BOUND('',#122,.T.);
#101=FACE_OUTER_BOUND('',#123,.T.);
#102=FACE_OUTER_BOUND('',#124,.T.);
#103=FACE_OUTER_BOUND('',#129,.T.);
#104=EDGE_LOOP('',(#130));
#105=EDGE_LOOP('',(#131));
#106=EDGE_LOOP('',(#132));
#107=EDGE_LOOP('',(#133));
#108=EDGE_LOOP('',(#134));
#109=EDGE_LOOP('',(#135));
#110=EDGE_LOOP('',(#136));
#111=EDGE_LOOP('',(#137));
#112=EDGE_LOOP('',(#138));
#113=EDGE_LOOP('',(#139));
#114=EDGE_LOOP('',(#140));
#115=EDGE_LOOP('',(#141));
#116=EDGE_LOOP('',(#142));
#117=EDGE_LOOP('',(#143));
#118=EDGE_LOOP('',(#144));
#119=EDGE_LOOP('',(#145));
#120=EDGE_LOOP('',(#146));
#121=EDGE_LOOP('',(#147));
#122=EDGE_LOOP('',(#148));
#123=EDGE_LOOP('',(#149));
#124=EDGE_LOOP('',(#150));
#125=EDGE_LOOP('',(#151));
#126=EDGE_LOOP('',(#152));
#127=EDGE_LOOP('',(#153));
#128=EDGE_LOOP('',(#154));
#129=EDGE_LOOP('',(#155));
#130=ORIENTED_EDGE('',*,*,#169,.T.);
#131=ORIENTED_EDGE('',*,*,#170,.T.);
#132=ORIENTED_EDGE('',*,*,#169,.F.);
#133=ORIENTED_EDGE('',*,*,#171,.T.);
#134=ORIENTED_EDGE('',*,*,#170,.F.);
#135=ORIENTED_EDGE('',*,*,#171,.F.);
#136=ORIENTED_EDGE('',*,*,#172,.F.);
#137=ORIENTED_EDGE('',*,*,#173,.F.);
#138=ORIENTED_EDGE('',*,*,#174,.F.);
#139=ORIENTED_EDGE('',*,*,#172,.T.);
#140=ORIENTED_EDGE('',*,*,#175,.F.);
#141=ORIENTED_EDGE('',*,*,#174,.T.);
#142=ORIENTED_EDGE('',*,*,#176,.F.);
#143=ORIENTED_EDGE('',*,*,#175,.T.);
#144=ORIENTED_EDGE('',*,*,#177,.F.);
#145=ORIENTED_EDGE('',*,*,#176,.T.);
#146=ORIENTED_EDGE('',*,*,#178,.F.);
#147=ORIENTED_EDGE('',*,*,#177,.T.);
#148=ORIENTED_EDGE('',*,*,#178,.T.);
#149=ORIENTED_EDGE('',*,*,#173,.T.);
#150=ORIENTED_EDGE('',*,*,#179,.T.);
#151=ORIENTED_EDGE('',*,*,#179,.F.);
#152=ORIENTED_EDGE('',*,*,#180,.F.);
#153=ORIENTED_EDGE('',*,*,#181,.T.);
#154=ORIENTED_EDGE('',*,*,#180,.T.);
#155=ORIENTED_EDGE('',*,*,#181,.F.);
#156=VERTEX_POINT('',#331);
#157=VERTEX_POINT('',#334);
#158=VERTEX_POINT('',#337);
#159=VERTEX_POINT('',#341);
#160=VERTEX_POINT('',#343);
#161=VERTEX_POINT('',#346);
#162=VERTEX_POINT('',#349);
#163=VERTEX_POINT('',#352);
#164=VERTEX_POINT('',#355);
#165=VERTEX_POINT('',#358);
#166=VERTEX_POINT('',#363);
#167=VERTEX_POINT('',#366);
#168=VERTEX_POINT('',#369);
#169=EDGE_CURVE('',#156,#156,#182,.T.);
#170=EDGE_CURVE('',#157,#157,#183,.T.);
#171=EDGE_CURVE('',#158,#158,#184,.T.);
#172=EDGE_CURVE('',#159,#159,#185,.T.);
#173=EDGE_CURVE('',#160,#160,#186,.T.);
#174=EDGE_CURVE('',#161,#161,#187,.T.);
#175=EDGE_CURVE('',#162,#162,#188,.T.);
#176=EDGE_CURVE('',#163,#163,#189,.T.);
#177=EDGE_CURVE('',#164,#164,#190,.T.);
#178=EDGE_CURVE('',#165,#165,#191,.T.);
#179=EDGE_CURVE('',#166,#166,#192,.T.);
#180=EDGE_CURVE('',#167,#167,#193,.T.);
#181=EDGE_CURVE('',#168,#168,#194,.T.);
#182=CIRCLE('',#228,7.93749999999996);
#183=CIRCLE('',#230,7.9375);
#184=CIRCLE('',#232,7.2263);
#185=CIRCLE('',#235,7.94);
#186=CIRCLE('',#236,7.94);
#187=CIRCLE('',#238,7.04999999999999);
#188=CIRCLE('',#240,7.05);
#189=CIRCLE('',#242,7.45);
#190=CIRCLE('',#244,7.45);
#191=CIRCLE('',#246,7.59736796528903);
#192=CIRCLE('',#250,7.44);
#193=CIRCLE('',#252,7.94);
#194=CIRCLE('',#254,7.94);
#195=PRESENTATION_LAYER_ASSIGNMENT('1','Layer 1',(#224,#225,#226,#227,#42));
#196=PRESENTATION_LAYER_ASSIGNMENT('3','Layer 3',(#40));
#197=PRESENTATION_LAYER_ASSIGNMENT('2','Layer 2',(#41));
#198=STYLED_ITEM('',(#205),#224);
#199=STYLED_ITEM('',(#206),#225);
#200=STYLED_ITEM('',(#207),#226);
#201=STYLED_ITEM('',(#208),#227);
#202=STYLED_ITEM('',(#209),#40);
#203=STYLED_ITEM('',(#210),#41);
#204=STYLED_ITEM('',(#211),#42);
#205=PRESENTATION_STYLE_ASSIGNMENT((#212));
#206=PRESENTATION_STYLE_ASSIGNMENT((#213));
#207=PRESENTATION_STYLE_ASSIGNMENT((#214));
#208=PRESENTATION_STYLE_ASSIGNMENT((#215));
#209=PRESENTATION_STYLE_ASSIGNMENT((#25));
#210=PRESENTATION_STYLE_ASSIGNMENT((#26));
#211=PRESENTATION_STYLE_ASSIGNMENT((#27));
#212=CURVE_STYLE('',#219,POSITIVE_LENGTH_MEASURE(0.18),#216);
#213=CURVE_STYLE('',#220,POSITIVE_LENGTH_MEASURE(0.18),#216);
#214=CURVE_STYLE('',#221,POSITIVE_LENGTH_MEASURE(0.18),#216);
#215=CURVE_STYLE('',#222,POSITIVE_LENGTH_MEASURE(0.18),#216);
#216=COLOUR_RGB('Strong Stone',0.576470588235294,0.54508278019379,0.392156862745098);
#217=COLOUR_RGB('Light Gray',0.8,0.8,0.8);
#218=COLOUR_RGB('Medium Gray',0.490196078431373,0.490196078431373,0.490196078431373);
#219=DRAUGHTING_PRE_DEFINED_CURVE_FONT('continuous');
#220=DRAUGHTING_PRE_DEFINED_CURVE_FONT('continuous');
#221=DRAUGHTING_PRE_DEFINED_CURVE_FONT('continuous');
#222=DRAUGHTING_PRE_DEFINED_CURVE_FONT('continuous');
#223=AXIS2_PLACEMENT_3D('',#325,#257,#258);
#224=AXIS2_PLACEMENT_3D('MCS',#326,#259,#260);
#225=AXIS2_PLACEMENT_3D('PCS',#327,#261,#262);
#226=AXIS2_PLACEMENT_3D('LCS',#328,#263,#264);
#227=AXIS2_PLACEMENT_3D('CIP',#329,#265,#266);
#228=AXIS2_PLACEMENT_3D('',#330,#267,#268);
#229=AXIS2_PLACEMENT_3D('',#332,#269,#270);
#230=AXIS2_PLACEMENT_3D('',#333,#271,#272);
#231=AXIS2_PLACEMENT_3D('',#335,#273,#274);
#232=AXIS2_PLACEMENT_3D('',#336,#275,#276);
#233=AXIS2_PLACEMENT_3D('',#338,#277,#278);
#234=AXIS2_PLACEMENT_3D('',#339,#279,#280);
#235=AXIS2_PLACEMENT_3D('',#340,#281,#282);
#236=AXIS2_PLACEMENT_3D('',#342,#283,#284);
#237=AXIS2_PLACEMENT_3D('',#344,#285,#286);
#238=AXIS2_PLACEMENT_3D('',#345,#287,#288);
#239=AXIS2_PLACEMENT_3D('',#347,#289,#290);
#240=AXIS2_PLACEMENT_3D('',#348,#291,#292);
#241=AXIS2_PLACEMENT_3D('',#350,#293,#294);
#242=AXIS2_PLACEMENT_3D('',#351,#295,#296);
#243=AXIS2_PLACEMENT_3D('',#353,#297,#298);
#244=AXIS2_PLACEMENT_3D('',#354,#299,#300);
#245=AXIS2_PLACEMENT_3D('',#356,#301,#302);
#246=AXIS2_PLACEMENT_3D('',#357,#303,#304);
#247=AXIS2_PLACEMENT_3D('',#359,#305,#306);
#248=AXIS2_PLACEMENT_3D('',#360,#307,#308);
#249=AXIS2_PLACEMENT_3D('',#361,#309,#310);
#250=AXIS2_PLACEMENT_3D('',#362,#311,#312);
#251=AXIS2_PLACEMENT_3D('',#364,#313,#314);
#252=AXIS2_PLACEMENT_3D('',#365,#315,#316);
#253=AXIS2_PLACEMENT_3D('',#367,#317,#318);
#254=AXIS2_PLACEMENT_3D('',#368,#319,#320);
#255=AXIS2_PLACEMENT_3D('',#370,#321,#322);
#256=AXIS2_PLACEMENT_3D('',#371,#323,#324);
#257=DIRECTION('',(0.,0.,1.));
#258=DIRECTION('',(1.,0.,0.));
#259=DIRECTION('',(0.,0.,1.));
#260=DIRECTION('',(1.,0.,0.));
#261=DIRECTION('',(0.,0.,1.));
#262=DIRECTION('',(1.,0.,0.));
#263=DIRECTION('',(0.,0.,1.));
#264=DIRECTION('',(1.,0.,0.));
#265=DIRECTION('',(0.,0.,1.));
#266=DIRECTION('',(1.,0.,0.));
#267=DIRECTION('',(0.,0.,-1.));
#268=DIRECTION('',(-1.,0.,0.));
#269=DIRECTION('',(0.,0.,-1.));
#270=DIRECTION('',(1.,0.,0.));
#271=DIRECTION('',(0.,0.,-1.));
#272=DIRECTION('',(-1.,0.,0.));
#273=DIRECTION('',(0.,0.,-1.));
#274=DIRECTION('',(1.,0.,0.));
#275=DIRECTION('',(0.,0.,-1.));
#276=DIRECTION('',(-1.,0.,0.));
#277=DIRECTION('',(0.,0.,-1.));
#278=DIRECTION('',(1.,0.,1.10148002691154E-16));
#279=DIRECTION('',(0.,0.,1.));
#280=DIRECTION('',(-1.,0.,0.));
#281=DIRECTION('',(0.,0.,-1.));
#282=DIRECTION('',(-1.,0.,0.));
#283=DIRECTION('',(0.,0.,1.));
#284=DIRECTION('',(1.,0.,0.));
#285=DIRECTION('',(0.,0.,-1.));
#286=DIRECTION('',(1.,0.,0.));
#287=DIRECTION('',(0.,0.,-1.));
#288=DIRECTION('',(-1.,0.,0.));
#289=DIRECTION('',(0.,0.,1.));
#290=DIRECTION('',(-1.,0.,-3.14387718614583E-17));
#291=DIRECTION('',(0.,0.,-1.));
#292=DIRECTION('',(-1.,0.,0.));
#293=DIRECTION('',(0.,0.,-1.));
#294=DIRECTION('',(1.,0.,0.));
#295=DIRECTION('',(0.,0.,-1.));
#296=DIRECTION('',(-1.,0.,0.));
#297=DIRECTION('',(0.,0.,-1.));
#298=DIRECTION('',(1.,0.,-1.31929935133143E-16));
#299=DIRECTION('',(0.,0.,-1.));
#300=DIRECTION('',(-1.,0.,0.));
#301=DIRECTION('',(0.,0.,-1.));
#302=DIRECTION('',(1.,0.,0.));
#303=DIRECTION('',(0.,0.,-1.));
#304=DIRECTION('',(-1.,0.,0.));
#305=DIRECTION('',(0.,0.,-1.));
#306=DIRECTION('',(1.,0.,2.19697574840162E-16));
#307=DIRECTION('',(3.69778549322349E-32,0.,-1.));
#308=DIRECTION('',(-1.,0.,0.));
#309=DIRECTION('',(0.,0.,1.));
#310=DIRECTION('',(-1.,0.,0.));
#311=DIRECTION('',(0.,0.,1.));
#312=DIRECTION('',(-1.,0.,0.));
#313=DIRECTION('',(0.,0.,-1.));
#314=DIRECTION('',(1.,0.,0.));
#315=DIRECTION('',(0.,0.,-1.));
#316=DIRECTION('',(-1.,0.,0.));
#317=DIRECTION('',(0.,0.,-1.));
#318=DIRECTION('',(1.,0.,5.50738647451811E-17));
#319=DIRECTION('',(0.,0.,1.));
#320=DIRECTION('',(1.,0.,0.));
#321=DIRECTION('',(0.,0.,-1.));
#322=DIRECTION('',(1.,0.,0.));
#323=DIRECTION('',(0.,0.,1.));
#324=DIRECTION('',(-1.,0.,0.));
#325=CARTESIAN_POINT('',(0.,0.,0.));
#326=CARTESIAN_POINT('',(0.,0.,0.));
#327=CARTESIAN_POINT('',(0.,0.,48.006));
#328=CARTESIAN_POINT('',(0.,0.,24.2));
#329=CARTESIAN_POINT('',(0.,0.,-50.854));
#330=CARTESIAN_POINT('',(0.,0.,-42.9133));
#331=CARTESIAN_POINT('',(-7.93749999999996,0.,-42.9133));
#332=CARTESIAN_POINT('',(-4.16333634234434E-14,0.,-42.9133));
#333=CARTESIAN_POINT('',(0.,0.,-33.8328));
#334=CARTESIAN_POINT('',(-7.9375,0.,-33.8328));
#335=CARTESIAN_POINT('',(0.,0.,48.006));
#336=CARTESIAN_POINT('',(0.,0.,-33.1216));
#337=CARTESIAN_POINT('',(-7.2263,0.,-33.1216));
#338=CARTESIAN_POINT('',(0.,0.,-33.8328));
#339=CARTESIAN_POINT('',(7.2263,0.,-33.1216));
#340=CARTESIAN_POINT('',(0.,0.,-10.));
#341=CARTESIAN_POINT('',(-7.94,0.,-10.));
#342=CARTESIAN_POINT('',(0.,0.,0.));
#343=CARTESIAN_POINT('',(7.94,0.,0.));
#344=CARTESIAN_POINT('',(0.,0.,48.006));
#345=CARTESIAN_POINT('',(0.,0.,-13.3215252187363));
#346=CARTESIAN_POINT('',(-7.04999999999999,0.,-13.3215252187363));
#347=CARTESIAN_POINT('',(0.,0.,-10.));
#348=CARTESIAN_POINT('',(0.,0.,-33.3361972317962));
#349=CARTESIAN_POINT('',(-7.05,0.,-33.3361972317962));
#350=CARTESIAN_POINT('',(0.,0.,48.006));
#351=CARTESIAN_POINT('',(0.,0.,-34.194));
#352=CARTESIAN_POINT('',(-7.45,0.,-34.194));
#353=CARTESIAN_POINT('',(0.,0.,-33.3361972317962));
#354=CARTESIAN_POINT('',(0.,0.,-43.1379683785763));
#355=CARTESIAN_POINT('',(-7.45,0.,-43.1379683785763));
#356=CARTESIAN_POINT('',(0.,0.,48.006));
#357=CARTESIAN_POINT('',(0.,0.,-43.454));
#358=CARTESIAN_POINT('',(-7.59736796528903,0.,-43.454));
#359=CARTESIAN_POINT('',(0.,0.,-43.1379683785763));
#360=CARTESIAN_POINT('',(0.,0.,-43.254));
#361=CARTESIAN_POINT('',(0.,0.,0.));
#362=CARTESIAN_POINT('',(0.,0.,48.4));
#363=CARTESIAN_POINT('',(-7.44,0.,48.4));
#364=CARTESIAN_POINT('',(0.,0.,48.4));
#365=CARTESIAN_POINT('',(0.,0.,47.9));
#366=CARTESIAN_POINT('',(-7.94,0.,47.9));
#367=CARTESIAN_POINT('',(0.,0.,47.9));
#368=CARTESIAN_POINT('',(0.,0.,0.));
#369=CARTESIAN_POINT('',(7.94,0.,0.));
#370=CARTESIAN_POINT('',(0.,0.,48.006));
#371=CARTESIAN_POINT('',(0.,0.,0.));
#372=MECHANICAL_DESIGN_GEOMETRIC_PRESENTATION_REPRESENTATION('',(#198,#199,
#200,#201,#202,#203,#204),#373);
#373=(
GEOMETRIC_REPRESENTATION_CONTEXT(3)
GLOBAL_UNCERTAINTY_ASSIGNED_CONTEXT((#374))
GLOBAL_UNIT_ASSIGNED_CONTEXT((#380,#376,#375))
REPRESENTATION_CONTEXT('R218.19-00','TOP_LEVEL_ASSEMBLY_PART')
);
#374=UNCERTAINTY_MEASURE_WITH_UNIT(LENGTH_MEASURE(2.E-5),#380,
'DISTANCE_ACCURACY_VALUE','Maximum Tolerance applied to model');
#375=(
NAMED_UNIT(*)
SI_UNIT($,.STERADIAN.)
SOLID_ANGLE_UNIT()
);
#376=(
CONVERSION_BASED_UNIT('DEGREE',#378)
NAMED_UNIT(#377)
PLANE_ANGLE_UNIT()
);
#377=DIMENSIONAL_EXPONENTS(0.,0.,0.,0.,0.,0.,0.);
#378=PLANE_ANGLE_MEASURE_WITH_UNIT(PLANE_ANGLE_MEASURE(0.0174532925),#379);
#379=(
NAMED_UNIT(*)
PLANE_ANGLE_UNIT()
SI_UNIT($,.RADIAN.)
);
#380=(
LENGTH_UNIT()
NAMED_UNIT(*)
SI_UNIT(.MILLI.,.METRE.)
);
ENDSEC;
END-ISO-10303-21;
