ISO-10303-21;
HEADER;
/* Generated by software containing ST-Developer
 * from STEP Tools, Inc. (www.steptools.com) 
 */
/* OPTION: using custom schema-name function */

FILE_DESCRIPTION(
/* description */ (''),
/* implementation_level */ '2;1');

FILE_NAME(
/* name */ 'R217.28-01.50-20RE-06-4A.stp',
/* time_stamp */ '2017-12-22T13:30:42+05:00',
/* author */ (''),
/* organization */ (''),
/* preprocessor_version */ 'ST-DEVELOPER v16',
/* originating_system */ 'SIEMENS PLM Software NX 11.0',
/* authorisation */ '');

FILE_SCHEMA (('AUTOMOTIVE_DESIGN { 1 0 10303 214 3 1 1 1 }'));
ENDSEC;

DATA;
#10=CONSTRUCTIVE_GEOMETRY_REPRESENTATION_RELATIONSHIP(
'supplemental geometry','',#24,#11);
#11=CONSTRUCTIVE_GEOMETRY_REPRESENTATION('supplemental geometry',(#330,
#331,#332),#561);
#12=SHAPE_REPRESENTATION_RELATIONSHIP('None',
'relationship between R217.28-01.50-20RE-06-4A-None and R217.28-01.50-
20RE-06-4A-None',#24,#13);
#13=ADVANCED_BREP_SHAPE_REPRESENTATION('R217.28-01.50-20RE-06-4A-None',
(#42,#43,#44),#561);
#14=SHAPE_DEFINITION_REPRESENTATION(#15,#24);
#15=PRODUCT_DEFINITION_SHAPE('','',#16);
#16=PRODUCT_DEFINITION(' ','',#18,#17);
#17=PRODUCT_DEFINITION_CONTEXT('part definition',#23,'design');
#18=PRODUCT_DEFINITION_FORMATION_WITH_SPECIFIED_SOURCE(' ',' ',#20,
 .NOT_KNOWN.);
#19=PRODUCT_RELATED_PRODUCT_CATEGORY('part','',(#20));
#20=PRODUCT('R217.28-01.50-20RE-06-4A','R217.28-01.50-20RE-06-4A',' ',(#21));
#21=PRODUCT_CONTEXT(' ',#23,'mechanical');
#22=APPLICATION_PROTOCOL_DEFINITION('international standard',
'automotive_design',2010,#23);
#23=APPLICATION_CONTEXT(
'core data for automotive mechanical design processes');
#24=SHAPE_REPRESENTATION('R217.28-01.50-20RE-06-4A-None',(#329),#561);
#25=SURFACE_OF_REVOLUTION('',#299,#26);
#26=AXIS1_PLACEMENT('',#542,#460);
#27=SURFACE_STYLE_USAGE(.BOTH.,#30);
#28=SURFACE_STYLE_USAGE(.BOTH.,#31);
#29=SURFACE_STYLE_USAGE(.BOTH.,#32);
#30=SURFACE_SIDE_STYLE('',(#33));
#31=SURFACE_SIDE_STYLE('',(#34));
#32=SURFACE_SIDE_STYLE('',(#35));
#33=SURFACE_STYLE_FILL_AREA(#36);
#34=SURFACE_STYLE_FILL_AREA(#37);
#35=SURFACE_STYLE_FILL_AREA(#38);
#36=FILL_AREA_STYLE('',(#39));
#37=FILL_AREA_STYLE('',(#40));
#38=FILL_AREA_STYLE('',(#41));
#39=FILL_AREA_STYLE_COLOUR('',#324);
#40=FILL_AREA_STYLE_COLOUR('',#325);
#41=FILL_AREA_STYLE_COLOUR('',#324);
#42=MANIFOLD_SOLID_BREP('NOCUT',#45);
#43=MANIFOLD_SOLID_BREP('CUT',#46);
#44=MANIFOLD_SOLID_BREP('NOCUT',#47);
#45=CLOSED_SHELL('',(#69,#70,#71,#72,#73,#74,#75,#76,#77,#78,#79,#80,#81,
#82,#83,#84,#85,#86));
#46=CLOSED_SHELL('',(#87));
#47=CLOSED_SHELL('',(#88,#89,#90,#91,#92,#93));
#48=VERTEX_LOOP('',#252);
#49=VERTEX_LOOP('',#253);
#50=VERTEX_LOOP('',#259);
#51=FACE_OUTER_BOUND('',#161,.T.);
#52=FACE_OUTER_BOUND('',#181,.T.);
#53=PLANE('',#347);
#54=PLANE('',#354);
#55=PLANE('',#370);
#56=TOROIDAL_SURFACE('',#344,12.7878129668167,5.8);
#57=TOROIDAL_SURFACE('',#350,13.1411318607109,6.49999999999999);
#58=TOROIDAL_SURFACE('',#361,15.7571999314846,1.);
#59=TOROIDAL_SURFACE('',#362,10.,5.);
#60=TOROIDAL_SURFACE('',#363,20.,5.);
#61=TOROIDAL_SURFACE('',#364,13.25,5.);
#62=TOROIDAL_SURFACE('',#365,12.374586649262,0.8);
#63=TOROIDAL_SURFACE('',#366,13.2840147101594,0.8);
#64=TOROIDAL_SURFACE('',#367,8.01949990748798,1.);
#65=CYLINDRICAL_SURFACE('',#338,15.);
#66=CYLINDRICAL_SURFACE('',#357,18.25);
#67=CYLINDRICAL_SURFACE('',#374,9.99999999999998);
#68=CYLINDRICAL_SURFACE('',#378,10.49725);
#69=ADVANCED_FACE('',(#102,#103),#94,.T.);
#70=ADVANCED_FACE('',(#104,#105),#65,.T.);
#71=ADVANCED_FACE('',(#106,#107),#95,.T.);
#72=ADVANCED_FACE('',(#108,#109),#56,.T.);
#73=ADVANCED_FACE('',(#110,#111),#53,.F.);
#74=ADVANCED_FACE('',(#112,#113),#57,.T.);
#75=ADVANCED_FACE('',(#114,#115),#96,.F.);
#76=ADVANCED_FACE('',(#51),#54,.F.);
#77=ADVANCED_FACE('',(#116,#117),#66,.T.);
#78=ADVANCED_FACE('',(#118,#119),#97,.F.);
#79=ADVANCED_FACE('',(#120,#121),#98,.T.);
#80=ADVANCED_FACE('',(#122,#123),#58,.F.);
#81=ADVANCED_FACE('',(#124,#125),#59,.T.);
#82=ADVANCED_FACE('',(#126,#127),#60,.F.);
#83=ADVANCED_FACE('',(#128,#129),#61,.T.);
#84=ADVANCED_FACE('',(#130,#131),#62,.T.);
#85=ADVANCED_FACE('',(#132,#133),#63,.T.);
#86=ADVANCED_FACE('',(#134,#135),#64,.F.);
#87=ADVANCED_FACE('',(#136),#25,.F.);
#88=ADVANCED_FACE('',(#52),#55,.T.);
#89=ADVANCED_FACE('',(#137,#138),#99,.T.);
#90=ADVANCED_FACE('',(#139,#140),#67,.T.);
#91=ADVANCED_FACE('',(#141,#142),#100,.T.);
#92=ADVANCED_FACE('',(#143,#144),#68,.T.);
#93=ADVANCED_FACE('',(#145,#146),#101,.T.);
#94=CONICAL_SURFACE('',#335,15.,20.);
#95=CONICAL_SURFACE('',#341,14.6848026207585,5.99999999999996);
#96=CONICAL_SURFACE('',#352,8.38347014175418,50.0000000000001);
#97=CONICAL_SURFACE('',#359,11.7328047322621,89.8329623892096);
#98=CONICAL_SURFACE('',#360,17.9484851385846,30.125225580196);
#99=CONICAL_SURFACE('',#372,7.49999999999998,45.);
#100=CONICAL_SURFACE('',#376,9.99999999999998,15.);
#101=CONICAL_SURFACE('',#379,11.7328047322621,89.8329623892096);
#102=FACE_BOUND('',#147,.T.);
#103=FACE_BOUND('',#148,.T.);
#104=FACE_BOUND('',#149,.T.);
#105=FACE_BOUND('',#150,.T.);
#106=FACE_BOUND('',#151,.T.);
#107=FACE_BOUND('',#152,.T.);
#108=FACE_BOUND('',#153,.T.);
#109=FACE_BOUND('',#154,.T.);
#110=FACE_BOUND('',#155,.T.);
#111=FACE_BOUND('',#156,.T.);
#112=FACE_BOUND('',#157,.T.);
#113=FACE_BOUND('',#158,.T.);
#114=FACE_BOUND('',#159,.T.);
#115=FACE_BOUND('',#160,.T.);
#116=FACE_BOUND('',#162,.T.);
#117=FACE_BOUND('',#163,.T.);
#118=FACE_BOUND('',#164,.T.);
#119=FACE_BOUND('',#48,.T.);
#120=FACE_BOUND('',#165,.T.);
#121=FACE_BOUND('',#166,.T.);
#122=FACE_BOUND('',#167,.T.);
#123=FACE_BOUND('',#168,.T.);
#124=FACE_BOUND('',#169,.T.);
#125=FACE_BOUND('',#170,.T.);
#126=FACE_BOUND('',#171,.T.);
#127=FACE_BOUND('',#172,.T.);
#128=FACE_BOUND('',#173,.T.);
#129=FACE_BOUND('',#174,.T.);
#130=FACE_BOUND('',#175,.T.);
#131=FACE_BOUND('',#176,.T.);
#132=FACE_BOUND('',#177,.T.);
#133=FACE_BOUND('',#178,.T.);
#134=FACE_BOUND('',#179,.T.);
#135=FACE_BOUND('',#180,.T.);
#136=FACE_BOUND('',#49,.T.);
#137=FACE_BOUND('',#182,.T.);
#138=FACE_BOUND('',#183,.T.);
#139=FACE_BOUND('',#184,.T.);
#140=FACE_BOUND('',#185,.T.);
#141=FACE_BOUND('',#186,.T.);
#142=FACE_BOUND('',#187,.T.);
#143=FACE_BOUND('',#188,.T.);
#144=FACE_BOUND('',#189,.T.);
#145=FACE_BOUND('',#50,.T.);
#146=FACE_BOUND('',#190,.T.);
#147=EDGE_LOOP('',(#191));
#148=EDGE_LOOP('',(#192));
#149=EDGE_LOOP('',(#193));
#150=EDGE_LOOP('',(#194));
#151=EDGE_LOOP('',(#195));
#152=EDGE_LOOP('',(#196));
#153=EDGE_LOOP('',(#197));
#154=EDGE_LOOP('',(#198));
#155=EDGE_LOOP('',(#199));
#156=EDGE_LOOP('',(#200));
#157=EDGE_LOOP('',(#201));
#158=EDGE_LOOP('',(#202));
#159=EDGE_LOOP('',(#203));
#160=EDGE_LOOP('',(#204));
#161=EDGE_LOOP('',(#205));
#162=EDGE_LOOP('',(#206));
#163=EDGE_LOOP('',(#207));
#164=EDGE_LOOP('',(#208));
#165=EDGE_LOOP('',(#209));
#166=EDGE_LOOP('',(#210));
#167=EDGE_LOOP('',(#211));
#168=EDGE_LOOP('',(#212));
#169=EDGE_LOOP('',(#213));
#170=EDGE_LOOP('',(#214));
#171=EDGE_LOOP('',(#215));
#172=EDGE_LOOP('',(#216));
#173=EDGE_LOOP('',(#217));
#174=EDGE_LOOP('',(#218));
#175=EDGE_LOOP('',(#219));
#176=EDGE_LOOP('',(#220));
#177=EDGE_LOOP('',(#221));
#178=EDGE_LOOP('',(#222));
#179=EDGE_LOOP('',(#223));
#180=EDGE_LOOP('',(#224));
#181=EDGE_LOOP('',(#225));
#182=EDGE_LOOP('',(#226));
#183=EDGE_LOOP('',(#227));
#184=EDGE_LOOP('',(#228));
#185=EDGE_LOOP('',(#229));
#186=EDGE_LOOP('',(#230));
#187=EDGE_LOOP('',(#231));
#188=EDGE_LOOP('',(#232));
#189=EDGE_LOOP('',(#233));
#190=EDGE_LOOP('',(#234));
#191=ORIENTED_EDGE('',*,*,#260,.T.);
#192=ORIENTED_EDGE('',*,*,#261,.T.);
#193=ORIENTED_EDGE('',*,*,#262,.T.);
#194=ORIENTED_EDGE('',*,*,#263,.T.);
#195=ORIENTED_EDGE('',*,*,#264,.T.);
#196=ORIENTED_EDGE('',*,*,#265,.T.);
#197=ORIENTED_EDGE('',*,*,#266,.T.);
#198=ORIENTED_EDGE('',*,*,#267,.T.);
#199=ORIENTED_EDGE('',*,*,#268,.T.);
#200=ORIENTED_EDGE('',*,*,#269,.T.);
#201=ORIENTED_EDGE('',*,*,#270,.T.);
#202=ORIENTED_EDGE('',*,*,#271,.T.);
#203=ORIENTED_EDGE('',*,*,#272,.T.);
#204=ORIENTED_EDGE('',*,*,#271,.F.);
#205=ORIENTED_EDGE('',*,*,#273,.T.);
#206=ORIENTED_EDGE('',*,*,#274,.T.);
#207=ORIENTED_EDGE('',*,*,#275,.T.);
#208=ORIENTED_EDGE('',*,*,#276,.T.);
#209=ORIENTED_EDGE('',*,*,#275,.F.);
#210=ORIENTED_EDGE('',*,*,#276,.F.);
#211=ORIENTED_EDGE('',*,*,#267,.F.);
#212=ORIENTED_EDGE('',*,*,#265,.F.);
#213=ORIENTED_EDGE('',*,*,#264,.F.);
#214=ORIENTED_EDGE('',*,*,#262,.F.);
#215=ORIENTED_EDGE('',*,*,#263,.F.);
#216=ORIENTED_EDGE('',*,*,#260,.F.);
#217=ORIENTED_EDGE('',*,*,#261,.F.);
#218=ORIENTED_EDGE('',*,*,#274,.F.);
#219=ORIENTED_EDGE('',*,*,#270,.F.);
#220=ORIENTED_EDGE('',*,*,#268,.F.);
#221=ORIENTED_EDGE('',*,*,#269,.F.);
#222=ORIENTED_EDGE('',*,*,#266,.F.);
#223=ORIENTED_EDGE('',*,*,#273,.F.);
#224=ORIENTED_EDGE('',*,*,#272,.F.);
#225=ORIENTED_EDGE('',*,*,#277,.T.);
#226=ORIENTED_EDGE('',*,*,#278,.F.);
#227=ORIENTED_EDGE('',*,*,#277,.F.);
#228=ORIENTED_EDGE('',*,*,#278,.T.);
#229=ORIENTED_EDGE('',*,*,#279,.T.);
#230=ORIENTED_EDGE('',*,*,#280,.T.);
#231=ORIENTED_EDGE('',*,*,#279,.F.);
#232=ORIENTED_EDGE('',*,*,#281,.T.);
#233=ORIENTED_EDGE('',*,*,#280,.F.);
#234=ORIENTED_EDGE('',*,*,#281,.F.);
#235=VERTEX_POINT('',#488);
#236=VERTEX_POINT('',#490);
#237=VERTEX_POINT('',#493);
#238=VERTEX_POINT('',#495);
#239=VERTEX_POINT('',#498);
#240=VERTEX_POINT('',#500);
#241=VERTEX_POINT('',#503);
#242=VERTEX_POINT('',#505);
#243=VERTEX_POINT('',#508);
#244=VERTEX_POINT('',#510);
#245=VERTEX_POINT('',#513);
#246=VERTEX_POINT('',#515);
#247=VERTEX_POINT('',#518);
#248=VERTEX_POINT('',#521);
#249=VERTEX_POINT('',#524);
#250=VERTEX_POINT('',#526);
#251=VERTEX_POINT('',#529);
#252=VERTEX_POINT('',#530);
#253=VERTEX_POINT('',#540);
#254=VERTEX_POINT('',#544);
#255=VERTEX_POINT('',#547);
#256=VERTEX_POINT('',#550);
#257=VERTEX_POINT('',#553);
#258=VERTEX_POINT('',#556);
#259=VERTEX_POINT('',#558);
#260=EDGE_CURVE('',#235,#235,#282,.T.);
#261=EDGE_CURVE('',#236,#236,#283,.T.);
#262=EDGE_CURVE('',#237,#237,#284,.T.);
#263=EDGE_CURVE('',#238,#238,#285,.T.);
#264=EDGE_CURVE('',#239,#239,#286,.T.);
#265=EDGE_CURVE('',#240,#240,#287,.T.);
#266=EDGE_CURVE('',#241,#241,#288,.T.);
#267=EDGE_CURVE('',#242,#242,#289,.T.);
#268=EDGE_CURVE('',#243,#243,#290,.T.);
#269=EDGE_CURVE('',#244,#244,#291,.T.);
#270=EDGE_CURVE('',#245,#245,#292,.T.);
#271=EDGE_CURVE('',#246,#246,#293,.T.);
#272=EDGE_CURVE('',#247,#247,#294,.T.);
#273=EDGE_CURVE('',#248,#248,#295,.T.);
#274=EDGE_CURVE('',#249,#249,#296,.T.);
#275=EDGE_CURVE('',#250,#250,#297,.T.);
#276=EDGE_CURVE('',#251,#251,#298,.T.);
#277=EDGE_CURVE('',#254,#254,#300,.T.);
#278=EDGE_CURVE('',#255,#255,#301,.T.);
#279=EDGE_CURVE('',#256,#256,#302,.T.);
#280=EDGE_CURVE('',#257,#257,#303,.T.);
#281=EDGE_CURVE('',#258,#258,#304,.T.);
#282=CIRCLE('',#333,15.3015368960705);
#283=CIRCLE('',#334,17.9484631039296);
#284=CIRCLE('',#336,15.);
#285=CIRCLE('',#337,15.);
#286=CIRCLE('',#339,14.9726094768414);
#287=CIRCLE('',#340,14.7626780361164);
#288=CIRCLE('',#342,13.3634069890942);
#289=CIRCLE('',#343,15.320525377857);
#290=CIRCLE('',#345,12.374586649262);
#291=CIRCLE('',#346,13.2840147101594);
#292=CIRCLE('',#348,12.267001356427);
#293=CIRCLE('',#349,8.96301239774842);
#294=CIRCLE('',#351,8.66228751717452);
#295=CIRCLE('',#353,8.01949990748798);
#296=CIRCLE('',#355,18.25);
#297=CIRCLE('',#356,18.25);
#298=CIRCLE('',#358,17.9484851385846);
#299=CIRCLE('',#368,6.);
#300=CIRCLE('',#369,7.49999999999998);
#301=CIRCLE('',#371,9.99999999999998);
#302=CIRCLE('',#373,9.99999999999998);
#303=CIRCLE('',#375,10.49725);
#304=CIRCLE('',#377,10.49725);
#305=PRESENTATION_LAYER_ASSIGNMENT('1','Layer 1',(#330,#331,#332,#44));
#306=PRESENTATION_LAYER_ASSIGNMENT('2','Layer 2',(#42));
#307=PRESENTATION_LAYER_ASSIGNMENT('3','Layer 3',(#43));
#308=STYLED_ITEM('',(#314),#330);
#309=STYLED_ITEM('',(#315),#331);
#310=STYLED_ITEM('',(#316),#332);
#311=STYLED_ITEM('',(#317),#42);
#312=STYLED_ITEM('',(#318),#43);
#313=STYLED_ITEM('',(#319),#44);
#314=PRESENTATION_STYLE_ASSIGNMENT((#320));
#315=PRESENTATION_STYLE_ASSIGNMENT((#321));
#316=PRESENTATION_STYLE_ASSIGNMENT((#322));
#317=PRESENTATION_STYLE_ASSIGNMENT((#27));
#318=PRESENTATION_STYLE_ASSIGNMENT((#28));
#319=PRESENTATION_STYLE_ASSIGNMENT((#29));
#320=CURVE_STYLE('',#326,POSITIVE_LENGTH_MEASURE(0.18),#323);
#321=CURVE_STYLE('',#327,POSITIVE_LENGTH_MEASURE(0.18),#323);
#322=CURVE_STYLE('',#328,POSITIVE_LENGTH_MEASURE(0.18),#323);
#323=COLOUR_RGB('Strong Stone',0.576470588235294,0.54508278019379,0.392156862745098);
#324=COLOUR_RGB('Medium Gray',0.490196078431373,0.490196078431373,0.490196078431373);
#325=COLOUR_RGB('Light Gray',0.8,0.8,0.8);
#326=DRAUGHTING_PRE_DEFINED_CURVE_FONT('continuous');
#327=DRAUGHTING_PRE_DEFINED_CURVE_FONT('continuous');
#328=DRAUGHTING_PRE_DEFINED_CURVE_FONT('continuous');
#329=AXIS2_PLACEMENT_3D('',#483,#380,#381);
#330=AXIS2_PLACEMENT_3D('PCS',#484,#382,#383);
#331=AXIS2_PLACEMENT_3D('MCS',#485,#384,#385);
#332=AXIS2_PLACEMENT_3D('CIP',#486,#386,#387);
#333=AXIS2_PLACEMENT_3D('',#487,#388,#389);
#334=AXIS2_PLACEMENT_3D('',#489,#390,#391);
#335=AXIS2_PLACEMENT_3D('',#491,#392,#393);
#336=AXIS2_PLACEMENT_3D('',#492,#394,#395);
#337=AXIS2_PLACEMENT_3D('',#494,#396,#397);
#338=AXIS2_PLACEMENT_3D('',#496,#398,#399);
#339=AXIS2_PLACEMENT_3D('',#497,#400,#401);
#340=AXIS2_PLACEMENT_3D('',#499,#402,#403);
#341=AXIS2_PLACEMENT_3D('',#501,#404,#405);
#342=AXIS2_PLACEMENT_3D('',#502,#406,#407);
#343=AXIS2_PLACEMENT_3D('',#504,#408,#409);
#344=AXIS2_PLACEMENT_3D('',#506,#410,#411);
#345=AXIS2_PLACEMENT_3D('',#507,#412,#413);
#346=AXIS2_PLACEMENT_3D('',#509,#414,#415);
#347=AXIS2_PLACEMENT_3D('',#511,#416,#417);
#348=AXIS2_PLACEMENT_3D('',#512,#418,#419);
#349=AXIS2_PLACEMENT_3D('',#514,#420,#421);
#350=AXIS2_PLACEMENT_3D('',#516,#422,#423);
#351=AXIS2_PLACEMENT_3D('',#517,#424,#425);
#352=AXIS2_PLACEMENT_3D('',#519,#426,#427);
#353=AXIS2_PLACEMENT_3D('',#520,#428,#429);
#354=AXIS2_PLACEMENT_3D('',#522,#430,#431);
#355=AXIS2_PLACEMENT_3D('',#523,#432,#433);
#356=AXIS2_PLACEMENT_3D('',#525,#434,#435);
#357=AXIS2_PLACEMENT_3D('',#527,#436,#437);
#358=AXIS2_PLACEMENT_3D('',#528,#438,#439);
#359=AXIS2_PLACEMENT_3D('',#531,#440,#441);
#360=AXIS2_PLACEMENT_3D('',#532,#442,#443);
#361=AXIS2_PLACEMENT_3D('',#533,#444,#445);
#362=AXIS2_PLACEMENT_3D('',#534,#446,#447);
#363=AXIS2_PLACEMENT_3D('',#535,#448,#449);
#364=AXIS2_PLACEMENT_3D('',#536,#450,#451);
#365=AXIS2_PLACEMENT_3D('',#537,#452,#453);
#366=AXIS2_PLACEMENT_3D('',#538,#454,#455);
#367=AXIS2_PLACEMENT_3D('',#539,#456,#457);
#368=AXIS2_PLACEMENT_3D('',#541,#458,#459);
#369=AXIS2_PLACEMENT_3D('',#543,#461,#462);
#370=AXIS2_PLACEMENT_3D('',#545,#463,#464);
#371=AXIS2_PLACEMENT_3D('',#546,#465,#466);
#372=AXIS2_PLACEMENT_3D('',#548,#467,#468);
#373=AXIS2_PLACEMENT_3D('',#549,#469,#470);
#374=AXIS2_PLACEMENT_3D('',#551,#471,#472);
#375=AXIS2_PLACEMENT_3D('',#552,#473,#474);
#376=AXIS2_PLACEMENT_3D('',#554,#475,#476);
#377=AXIS2_PLACEMENT_3D('',#555,#477,#478);
#378=AXIS2_PLACEMENT_3D('',#557,#479,#480);
#379=AXIS2_PLACEMENT_3D('',#559,#481,#482);
#380=DIRECTION('',(0.,0.,1.));
#381=DIRECTION('',(1.,0.,0.));
#382=DIRECTION('',(0.,0.,1.));
#383=DIRECTION('',(1.,0.,0.));
#384=DIRECTION('',(0.,0.,1.));
#385=DIRECTION('',(1.,0.,0.));
#386=DIRECTION('',(0.,0.,1.));
#387=DIRECTION('',(1.,0.,0.));
#388=DIRECTION('',(0.,0.,1.));
#389=DIRECTION('',(1.,0.,0.));
#390=DIRECTION('',(0.,0.,-1.));
#391=DIRECTION('',(1.,0.,0.));
#392=DIRECTION('',(0.,0.,1.));
#393=DIRECTION('',(-1.,0.,-1.83098651991573E-17));
#394=DIRECTION('',(0.,0.,1.));
#395=DIRECTION('',(-1.,0.,0.));
#396=DIRECTION('',(0.,0.,-1.));
#397=DIRECTION('',(1.,0.,0.));
#398=DIRECTION('',(0.,0.,1.));
#399=DIRECTION('',(-1.,0.,0.));
#400=DIRECTION('',(0.,0.,-1.));
#401=DIRECTION('',(-1.,0.,0.));
#402=DIRECTION('',(0.,0.,1.));
#403=DIRECTION('',(1.,0.,0.));
#404=DIRECTION('',(0.,0.,1.));
#405=DIRECTION('',(-1.,0.,0.));
#406=DIRECTION('',(0.,0.,1.));
#407=DIRECTION('',(1.,0.,0.));
#408=DIRECTION('',(0.,0.,-1.));
#409=DIRECTION('',(-1.,0.,0.));
#410=DIRECTION('',(0.,0.,1.));
#411=DIRECTION('',(-1.,0.,0.));
#412=DIRECTION('',(0.,0.,1.));
#413=DIRECTION('',(1.,0.,0.));
#414=DIRECTION('',(0.,0.,-1.));
#415=DIRECTION('',(1.,0.,0.));
#416=DIRECTION('',(0.,0.,1.));
#417=DIRECTION('',(-1.,0.,0.));
#418=DIRECTION('',(0.,0.,-1.));
#419=DIRECTION('',(1.,0.,0.));
#420=DIRECTION('',(0.,0.,1.));
#421=DIRECTION('',(1.,0.,0.));
#422=DIRECTION('',(0.,0.,1.));
#423=DIRECTION('',(-1.,0.,0.));
#424=DIRECTION('',(0.,0.,1.));
#425=DIRECTION('',(-1.,0.,0.));
#426=DIRECTION('',(0.,0.,-1.));
#427=DIRECTION('',(1.,0.,-2.31270048042297E-17));
#428=DIRECTION('',(0.,0.,-1.));
#429=DIRECTION('',(1.,0.,0.));
#430=DIRECTION('',(0.,0.,1.));
#431=DIRECTION('',(-1.,0.,0.));
#432=DIRECTION('',(0.,0.,1.));
#433=DIRECTION('',(-1.,0.,0.));
#434=DIRECTION('',(0.,0.,-1.));
#435=DIRECTION('',(1.,0.,0.));
#436=DIRECTION('',(0.,0.,1.));
#437=DIRECTION('',(-1.,0.,0.));
#438=DIRECTION('',(0.,0.,1.));
#439=DIRECTION('',(-1.,0.,0.));
#440=DIRECTION('',(0.,0.,1.));
#441=DIRECTION('',(-1.,0.,-3.86498804794973E-20));
#442=DIRECTION('',(0.,0.,-1.));
#443=DIRECTION('',(1.,0.,-2.17699277561394E-20));
#444=DIRECTION('',(0.,0.,1.));
#445=DIRECTION('',(-1.,0.,0.));
#446=DIRECTION('',(0.,0.,-1.));
#447=DIRECTION('',(1.,0.,0.));
#448=DIRECTION('',(0.,0.,1.));
#449=DIRECTION('',(-1.,0.,0.));
#450=DIRECTION('',(0.,0.,-1.));
#451=DIRECTION('',(1.,0.,0.));
#452=DIRECTION('',(0.,0.,-1.));
#453=DIRECTION('',(1.,0.,0.));
#454=DIRECTION('',(0.,0.,1.));
#455=DIRECTION('',(-1.,0.,0.));
#456=DIRECTION('',(0.,0.,1.));
#457=DIRECTION('',(-1.,0.,0.));
#458=DIRECTION('',(0.206821576517944,-0.973019016176121,-0.102268419594152));
#459=DIRECTION('',(0.960078596924771,0.181718772838972,0.212667287857963));
#460=DIRECTION('',(0.,0.,-1.));
#461=DIRECTION('',(0.,0.,1.));
#462=DIRECTION('',(1.,0.,0.));
#463=DIRECTION('',(0.,0.,1.));
#464=DIRECTION('',(-1.,0.,0.));
#465=DIRECTION('',(0.,0.,-1.));
#466=DIRECTION('',(1.,0.,0.));
#467=DIRECTION('',(0.,0.,-1.));
#468=DIRECTION('',(1.,0.,0.));
#469=DIRECTION('',(0.,0.,1.));
#470=DIRECTION('',(1.,0.,0.));
#471=DIRECTION('',(0.,0.,1.));
#472=DIRECTION('',(-1.,0.,0.));
#473=DIRECTION('',(0.,0.,1.));
#474=DIRECTION('',(1.,0.,0.));
#475=DIRECTION('',(0.,0.,-1.));
#476=DIRECTION('',(1.,0.,1.12340756576655E-16));
#477=DIRECTION('',(0.,0.,1.));
#478=DIRECTION('',(1.,0.,0.));
#479=DIRECTION('',(0.,0.,1.));
#480=DIRECTION('',(-1.,0.,0.));
#481=DIRECTION('',(0.,0.,1.));
#482=DIRECTION('',(-1.,0.,-3.86498804794973E-20));
#483=CARTESIAN_POINT('',(0.,0.,0.));
#484=CARTESIAN_POINT('',(0.,0.,0.));
#485=CARTESIAN_POINT('',(0.,0.,0.));
#486=CARTESIAN_POINT('',(0.,0.,-45.));
#487=CARTESIAN_POINT('',(0.,0.,-26.0999567744055));
#488=CARTESIAN_POINT('',(15.3015368960705,0.,-26.0999567744055));
#489=CARTESIAN_POINT('',(0.,0.,-18.82758678735));
#490=CARTESIAN_POINT('',(17.9484631039296,0.,-18.82758678735));
#491=CARTESIAN_POINT('',(0.,0.,-26.9284225874915));
#492=CARTESIAN_POINT('',(0.,0.,-29.7370820778488));
#493=CARTESIAN_POINT('',(-15.,0.,-29.7370820778488));
#494=CARTESIAN_POINT('',(0.,0.,-27.8100574910339));
#495=CARTESIAN_POINT('',(15.,0.,-27.8100574910339));
#496=CARTESIAN_POINT('',(0.,0.,0.000879025736001847));
#497=CARTESIAN_POINT('',(0.,0.,-30.2597243941871));
#498=CARTESIAN_POINT('',(-14.9726094768414,0.,-30.2597243941871));
#499=CARTESIAN_POINT('',(0.,0.,-32.2570886316447));
#500=CARTESIAN_POINT('',(14.7626780361164,0.,-32.2570886316447));
#501=CARTESIAN_POINT('',(0.,0.,-32.9980237153833));
#502=CARTESIAN_POINT('',(0.,0.,-44.250398286764));
#503=CARTESIAN_POINT('',(13.3634069890942,0.,-44.250398286764));
#504=CARTESIAN_POINT('',(0.,0.,-33.2612366446188));
#505=CARTESIAN_POINT('',(-15.320525377857,0.,-33.2612366446188));
#506=CARTESIAN_POINT('',(0.,0.,-38.4790300329164));
#507=CARTESIAN_POINT('',(0.,0.,-44.2543474931298));
#508=CARTESIAN_POINT('',(12.374586649262,0.,-44.2543474931298));
#509=CARTESIAN_POINT('',(0.,0.,-44.2543474931298));
#510=CARTESIAN_POINT('',(13.2840147101594,0.,-44.2543474931298));
#511=CARTESIAN_POINT('',(12.322329789522,0.,-44.2543474931298));
#512=CARTESIAN_POINT('',(0.,0.,-44.2470803641309));
#513=CARTESIAN_POINT('',(12.267001356427,0.,-44.2470803641309));
#514=CARTESIAN_POINT('',(0.,0.,-42.7854146675204));
#515=CARTESIAN_POINT('',(8.96301239774842,0.,-42.7854146675204));
#516=CARTESIAN_POINT('',(0.,0.,-37.8061257872471));
#517=CARTESIAN_POINT('',(0.,0.,-42.533076531145));
#518=CARTESIAN_POINT('',(-8.66228751717452,0.,-42.533076531145));
#519=CARTESIAN_POINT('',(0.,0.,-42.299120974264));
#520=CARTESIAN_POINT('',(0.,0.,-42.299120974264));
#521=CARTESIAN_POINT('',(8.01949990748798,0.,-42.299120974264));
#522=CARTESIAN_POINT('',(0.,0.,-42.299120974264));
#523=CARTESIAN_POINT('',(0.,0.,-17.1174860707216));
#524=CARTESIAN_POINT('',(-18.25,0.,-17.1174860707216));
#525=CARTESIAN_POINT('',(0.,0.,-0.519613034088727));
#526=CARTESIAN_POINT('',(18.25,0.,-0.519613034088727));
#527=CARTESIAN_POINT('',(0.,0.,27.000879025736));
#528=CARTESIAN_POINT('',(0.,0.,0.));
#529=CARTESIAN_POINT('',(-17.9484851385846,0.,0.));
#530=CARTESIAN_POINT('',(0.,0.,-0.0523263771643203));
#531=CARTESIAN_POINT('',(0.,0.,-0.0181209742639999));
#532=CARTESIAN_POINT('',(0.,0.,1.30231315640349E-17));
#533=CARTESIAN_POINT('',(0.,0.,-32.3616170949123));
#534=CARTESIAN_POINT('',(0.,0.,-29.7370820778488));
#535=CARTESIAN_POINT('',(0.,0.,-27.8100574910339));
#536=CARTESIAN_POINT('',(0.,0.,-17.1174860707216));
#537=CARTESIAN_POINT('',(0.,0.,-43.4543474931298));
#538=CARTESIAN_POINT('',(0.,0.,-43.4543474931298));
#539=CARTESIAN_POINT('',(0.,0.,-43.299120974264));
#540=CARTESIAN_POINT('',(18.9301997737817,-0.14363438142987,-37.7545763758997));
#541=CARTESIAN_POINT('',(13.169728192233,-1.2339470184637,-39.0305801030475));
#542=CARTESIAN_POINT('',(0.,0.,0.000879025736001847));
#543=CARTESIAN_POINT('',(0.,0.,27.000879025736));
#544=CARTESIAN_POINT('',(7.49999999999998,0.,27.000879025736));
#545=CARTESIAN_POINT('',(0.,0.,27.000879025736));
#546=CARTESIAN_POINT('',(0.,0.,24.500879025736));
#547=CARTESIAN_POINT('',(9.99999999999998,0.,24.500879025736));
#548=CARTESIAN_POINT('',(0.,0.,27.000879025736));
#549=CARTESIAN_POINT('',(0.,0.,7.85664128979965));
#550=CARTESIAN_POINT('',(9.99999999999998,0.,7.85664128979965));
#551=CARTESIAN_POINT('',(0.,0.,27.000879025736));
#552=CARTESIAN_POINT('',(0.,0.,6.000879025736));
#553=CARTESIAN_POINT('',(10.49725,0.,6.000879025736));
#554=CARTESIAN_POINT('',(0.,0.,7.85664128979965));
#555=CARTESIAN_POINT('',(0.,0.,-0.0217230667207346));
#556=CARTESIAN_POINT('',(10.49725,0.,-0.0217230667207346));
#557=CARTESIAN_POINT('',(0.,0.,27.000879025736));
#558=CARTESIAN_POINT('',(0.,0.,-0.0523263771643203));
#559=CARTESIAN_POINT('',(0.,0.,-0.0181209742639999));
#560=MECHANICAL_DESIGN_GEOMETRIC_PRESENTATION_REPRESENTATION('',(#308,#309,
#310,#311,#312,#313),#561);
#561=(
GEOMETRIC_REPRESENTATION_CONTEXT(3)
GLOBAL_UNCERTAINTY_ASSIGNED_CONTEXT((#562))
GLOBAL_UNIT_ASSIGNED_CONTEXT((#568,#564,#563))
REPRESENTATION_CONTEXT('R217.28-01','TOP_LEVEL_ASSEMBLY_PART')
);
#562=UNCERTAINTY_MEASURE_WITH_UNIT(LENGTH_MEASURE(2.E-5),#568,
'DISTANCE_ACCURACY_VALUE','Maximum Tolerance applied to model');
#563=(
NAMED_UNIT(*)
SI_UNIT($,.STERADIAN.)
SOLID_ANGLE_UNIT()
);
#564=(
CONVERSION_BASED_UNIT('DEGREE',#566)
NAMED_UNIT(#565)
PLANE_ANGLE_UNIT()
);
#565=DIMENSIONAL_EXPONENTS(0.,0.,0.,0.,0.,0.,0.);
#566=PLANE_ANGLE_MEASURE_WITH_UNIT(PLANE_ANGLE_MEASURE(0.0174532925),#567);
#567=(
NAMED_UNIT(*)
PLANE_ANGLE_UNIT()
SI_UNIT($,.RADIAN.)
);
#568=(
LENGTH_UNIT()
NAMED_UNIT(*)
SI_UNIT(.MILLI.,.METRE.)
);
ENDSEC;
END-ISO-10303-21;
