ISO-10303-21;
HEADER;
/* Generated by software containing ST-Developer
 * from STEP Tools, Inc. (www.steptools.com) 
 */
/* OPTION: using custom schema-name function */

FILE_DESCRIPTION(
/* description */ (''),
/* implementation_level */ '2;1');

FILE_NAME(
/* name */ 'R215.39-2020.3-09.stp',
/* time_stamp */ '2017-10-26T10:35:09+05:00',
/* author */ (''),
/* organization */ (''),
/* preprocessor_version */ 'ST-DEVELOPER v16',
/* originating_system */ 'SIEMENS PLM Software NX 11.0',
/* authorisation */ '');

FILE_SCHEMA (('AUTOMOTIVE_DESIGN { 1 0 10303 214 3 1 1 1 }'));
ENDSEC;

DATA;
#10=CONSTRUCTIVE_GEOMETRY_REPRESENTATION_RELATIONSHIP(
'supplemental geometry','',#32,#11);
#11=CONSTRUCTIVE_GEOMETRY_REPRESENTATION('supplemental geometry',(#285,
#286,#287,#288),#475);
#12=PROPERTY_DEFINITION_REPRESENTATION(#16,#14);
#13=PROPERTY_DEFINITION_REPRESENTATION(#17,#15);
#14=REPRESENTATION('',(#18),#475);
#15=REPRESENTATION('',(#19),#475);
#16=PROPERTY_DEFINITION('pmi validation property','',#23);
#17=PROPERTY_DEFINITION('pmi validation property','',#23);
#18=VALUE_REPRESENTATION_ITEM('number of annotations',COUNT_MEASURE(0.));
#19=VALUE_REPRESENTATION_ITEM('number of views',COUNT_MEASURE(0.));
#20=SHAPE_REPRESENTATION_RELATIONSHIP('None',
'relationship between R215.39-2020.3-09-None and R215.39-2020.3-09-Non
e',#32,#21);
#21=ADVANCED_BREP_SHAPE_REPRESENTATION('R215.39-2020.3-09-None',(#48,#49,
#50),#475);
#22=SHAPE_DEFINITION_REPRESENTATION(#23,#32);
#23=PRODUCT_DEFINITION_SHAPE('','',#24);
#24=PRODUCT_DEFINITION(' ','',#26,#25);
#25=PRODUCT_DEFINITION_CONTEXT('part definition',#31,'design');
#26=PRODUCT_DEFINITION_FORMATION_WITH_SPECIFIED_SOURCE(' ',' ',#28,
 .NOT_KNOWN.);
#27=PRODUCT_RELATED_PRODUCT_CATEGORY('part','',(#28));
#28=PRODUCT('R215.39-2020.3-09','R215.39-2020.3-09',' ',(#29));
#29=PRODUCT_CONTEXT(' ',#31,'mechanical');
#30=APPLICATION_PROTOCOL_DEFINITION('international standard',
'automotive_design',2010,#31);
#31=APPLICATION_CONTEXT(
'core data for automotive mechanical design processes');
#32=SHAPE_REPRESENTATION('R215.39-2020.3-09-None',(#284),#475);
#33=SURFACE_STYLE_USAGE(.BOTH.,#36);
#34=SURFACE_STYLE_USAGE(.BOTH.,#37);
#35=SURFACE_STYLE_USAGE(.BOTH.,#38);
#36=SURFACE_SIDE_STYLE('',(#39));
#37=SURFACE_SIDE_STYLE('',(#40));
#38=SURFACE_SIDE_STYLE('',(#41));
#39=SURFACE_STYLE_FILL_AREA(#42);
#40=SURFACE_STYLE_FILL_AREA(#43);
#41=SURFACE_STYLE_FILL_AREA(#44);
#42=FILL_AREA_STYLE('',(#45));
#43=FILL_AREA_STYLE('',(#46));
#44=FILL_AREA_STYLE('',(#47));
#45=FILL_AREA_STYLE_COLOUR('',#278);
#46=FILL_AREA_STYLE_COLOUR('',#279);
#47=FILL_AREA_STYLE_COLOUR('',#278);
#48=MANIFOLD_SOLID_BREP('NOCUT',#51);
#49=MANIFOLD_SOLID_BREP('CUT',#52);
#50=MANIFOLD_SOLID_BREP('NOCUT',#53);
#51=CLOSED_SHELL('',(#75,#76,#77,#78,#79,#80,#81,#82));
#52=CLOSED_SHELL('',(#83,#84,#85,#86,#87,#88,#89,#90));
#53=CLOSED_SHELL('',(#91,#92,#93,#94));
#54=CONICAL_SURFACE('',#295,7.975,29.16);
#55=CONICAL_SURFACE('',#297,13.315,14.34);
#56=CONICAL_SURFACE('',#299,13.061915977089,60.);
#57=CONICAL_SURFACE('',#306,13.3110980084791,60.);
#58=CONICAL_SURFACE('',#308,6.90251002047427,75.000000000006);
#59=CONICAL_SURFACE('',#310,5.45110802895355,30.);
#60=CONICAL_SURFACE('',#312,1.75110802895355,15.);
#61=CONICAL_SURFACE('',#314,2.14001002047444,60.);
#62=CONICAL_SURFACE('',#316,8.54859800847928,75.000000000006);
#63=CONICAL_SURFACE('',#318,10.,30.);
#64=CONICAL_SURFACE('',#319,13.7,15.);
#65=CONICAL_SURFACE('',#326,10.,44.9999999999999);
#66=PLANE('',#293);
#67=PLANE('',#302);
#68=PLANE('',#303);
#69=PLANE('',#321);
#70=PLANE('',#325);
#71=FACE_OUTER_BOUND('',#132,.T.);
#72=FACE_OUTER_BOUND('',#143,.T.);
#73=FACE_OUTER_BOUND('',#160,.T.);
#74=FACE_OUTER_BOUND('',#163,.T.);
#75=ADVANCED_FACE('',(#98,#99),#95,.T.);
#76=ADVANCED_FACE('',(#71),#66,.T.);
#77=ADVANCED_FACE('',(#100,#101),#54,.T.);
#78=ADVANCED_FACE('',(#102,#103),#55,.T.);
#79=ADVANCED_FACE('',(#104,#105),#56,.T.);
#80=ADVANCED_FACE('',(#106,#107),#96,.T.);
#81=ADVANCED_FACE('',(#108,#109),#67,.T.);
#82=ADVANCED_FACE('',(#72),#68,.T.);
#83=ADVANCED_FACE('',(#110,#111),#57,.T.);
#84=ADVANCED_FACE('',(#112,#113),#58,.F.);
#85=ADVANCED_FACE('',(#114,#115),#59,.F.);
#86=ADVANCED_FACE('',(#116,#117),#60,.F.);
#87=ADVANCED_FACE('',(#118,#119),#61,.F.);
#88=ADVANCED_FACE('',(#120,#121),#62,.T.);
#89=ADVANCED_FACE('',(#122,#123),#63,.T.);
#90=ADVANCED_FACE('',(#124,#125),#64,.T.);
#91=ADVANCED_FACE('',(#73),#69,.T.);
#92=ADVANCED_FACE('',(#126,#127),#97,.T.);
#93=ADVANCED_FACE('',(#74),#70,.F.);
#94=ADVANCED_FACE('',(#128,#129),#65,.T.);
#95=CYLINDRICAL_SURFACE('',#291,10.);
#96=CYLINDRICAL_SURFACE('',#301,9.00000000000001);
#97=CYLINDRICAL_SURFACE('',#324,10.);
#98=FACE_BOUND('',#130,.T.);
#99=FACE_BOUND('',#131,.T.);
#100=FACE_BOUND('',#133,.T.);
#101=FACE_BOUND('',#134,.T.);
#102=FACE_BOUND('',#135,.T.);
#103=FACE_BOUND('',#136,.T.);
#104=FACE_BOUND('',#137,.T.);
#105=FACE_BOUND('',#138,.T.);
#106=FACE_BOUND('',#139,.T.);
#107=FACE_BOUND('',#140,.T.);
#108=FACE_BOUND('',#141,.T.);
#109=FACE_BOUND('',#142,.T.);
#110=FACE_BOUND('',#144,.T.);
#111=FACE_BOUND('',#145,.T.);
#112=FACE_BOUND('',#146,.T.);
#113=FACE_BOUND('',#147,.T.);
#114=FACE_BOUND('',#148,.T.);
#115=FACE_BOUND('',#149,.T.);
#116=FACE_BOUND('',#150,.T.);
#117=FACE_BOUND('',#151,.T.);
#118=FACE_BOUND('',#152,.T.);
#119=FACE_BOUND('',#153,.T.);
#120=FACE_BOUND('',#154,.T.);
#121=FACE_BOUND('',#155,.T.);
#122=FACE_BOUND('',#156,.T.);
#123=FACE_BOUND('',#157,.T.);
#124=FACE_BOUND('',#158,.T.);
#125=FACE_BOUND('',#159,.T.);
#126=FACE_BOUND('',#161,.T.);
#127=FACE_BOUND('',#162,.T.);
#128=FACE_BOUND('',#164,.T.);
#129=FACE_BOUND('',#165,.T.);
#130=EDGE_LOOP('',(#166));
#131=EDGE_LOOP('',(#167));
#132=EDGE_LOOP('',(#168));
#133=EDGE_LOOP('',(#169));
#134=EDGE_LOOP('',(#170));
#135=EDGE_LOOP('',(#171));
#136=EDGE_LOOP('',(#172));
#137=EDGE_LOOP('',(#173));
#138=EDGE_LOOP('',(#174));
#139=EDGE_LOOP('',(#175));
#140=EDGE_LOOP('',(#176));
#141=EDGE_LOOP('',(#177));
#142=EDGE_LOOP('',(#178));
#143=EDGE_LOOP('',(#179));
#144=EDGE_LOOP('',(#180));
#145=EDGE_LOOP('',(#181));
#146=EDGE_LOOP('',(#182));
#147=EDGE_LOOP('',(#183));
#148=EDGE_LOOP('',(#184));
#149=EDGE_LOOP('',(#185));
#150=EDGE_LOOP('',(#186));
#151=EDGE_LOOP('',(#187));
#152=EDGE_LOOP('',(#188));
#153=EDGE_LOOP('',(#189));
#154=EDGE_LOOP('',(#190));
#155=EDGE_LOOP('',(#191));
#156=EDGE_LOOP('',(#192));
#157=EDGE_LOOP('',(#193));
#158=EDGE_LOOP('',(#194));
#159=EDGE_LOOP('',(#195));
#160=EDGE_LOOP('',(#196));
#161=EDGE_LOOP('',(#197));
#162=EDGE_LOOP('',(#198));
#163=EDGE_LOOP('',(#199));
#164=EDGE_LOOP('',(#200));
#165=EDGE_LOOP('',(#201));
#166=ORIENTED_EDGE('',*,*,#220,.F.);
#167=ORIENTED_EDGE('',*,*,#221,.T.);
#168=ORIENTED_EDGE('',*,*,#222,.T.);
#169=ORIENTED_EDGE('',*,*,#223,.T.);
#170=ORIENTED_EDGE('',*,*,#222,.F.);
#171=ORIENTED_EDGE('',*,*,#224,.T.);
#172=ORIENTED_EDGE('',*,*,#223,.F.);
#173=ORIENTED_EDGE('',*,*,#225,.T.);
#174=ORIENTED_EDGE('',*,*,#224,.F.);
#175=ORIENTED_EDGE('',*,*,#226,.T.);
#176=ORIENTED_EDGE('',*,*,#225,.F.);
#177=ORIENTED_EDGE('',*,*,#220,.T.);
#178=ORIENTED_EDGE('',*,*,#226,.F.);
#179=ORIENTED_EDGE('',*,*,#221,.F.);
#180=ORIENTED_EDGE('',*,*,#227,.T.);
#181=ORIENTED_EDGE('',*,*,#228,.F.);
#182=ORIENTED_EDGE('',*,*,#229,.T.);
#183=ORIENTED_EDGE('',*,*,#227,.F.);
#184=ORIENTED_EDGE('',*,*,#230,.T.);
#185=ORIENTED_EDGE('',*,*,#229,.F.);
#186=ORIENTED_EDGE('',*,*,#231,.T.);
#187=ORIENTED_EDGE('',*,*,#230,.F.);
#188=ORIENTED_EDGE('',*,*,#232,.T.);
#189=ORIENTED_EDGE('',*,*,#231,.F.);
#190=ORIENTED_EDGE('',*,*,#233,.T.);
#191=ORIENTED_EDGE('',*,*,#232,.F.);
#192=ORIENTED_EDGE('',*,*,#234,.T.);
#193=ORIENTED_EDGE('',*,*,#233,.F.);
#194=ORIENTED_EDGE('',*,*,#228,.T.);
#195=ORIENTED_EDGE('',*,*,#234,.F.);
#196=ORIENTED_EDGE('',*,*,#235,.T.);
#197=ORIENTED_EDGE('',*,*,#236,.T.);
#198=ORIENTED_EDGE('',*,*,#237,.F.);
#199=ORIENTED_EDGE('',*,*,#237,.T.);
#200=ORIENTED_EDGE('',*,*,#235,.F.);
#201=ORIENTED_EDGE('',*,*,#236,.F.);
#202=VERTEX_POINT('',#419);
#203=VERTEX_POINT('',#421);
#204=VERTEX_POINT('',#424);
#205=VERTEX_POINT('',#427);
#206=VERTEX_POINT('',#430);
#207=VERTEX_POINT('',#433);
#208=VERTEX_POINT('',#436);
#209=VERTEX_POINT('',#441);
#210=VERTEX_POINT('',#443);
#211=VERTEX_POINT('',#446);
#212=VERTEX_POINT('',#449);
#213=VERTEX_POINT('',#452);
#214=VERTEX_POINT('',#455);
#215=VERTEX_POINT('',#458);
#216=VERTEX_POINT('',#461);
#217=VERTEX_POINT('',#465);
#218=VERTEX_POINT('',#468);
#219=VERTEX_POINT('',#470);
#220=EDGE_CURVE('',#202,#202,#238,.T.);
#221=EDGE_CURVE('',#203,#203,#239,.T.);
#222=EDGE_CURVE('',#204,#204,#240,.T.);
#223=EDGE_CURVE('',#205,#205,#241,.T.);
#224=EDGE_CURVE('',#206,#206,#242,.T.);
#225=EDGE_CURVE('',#207,#207,#243,.T.);
#226=EDGE_CURVE('',#208,#208,#244,.T.);
#227=EDGE_CURVE('',#209,#209,#245,.T.);
#228=EDGE_CURVE('',#210,#210,#246,.T.);
#229=EDGE_CURVE('',#211,#211,#247,.T.);
#230=EDGE_CURVE('',#212,#212,#248,.T.);
#231=EDGE_CURVE('',#213,#213,#249,.T.);
#232=EDGE_CURVE('',#214,#214,#250,.T.);
#233=EDGE_CURVE('',#215,#215,#251,.T.);
#234=EDGE_CURVE('',#216,#216,#252,.T.);
#235=EDGE_CURVE('',#217,#217,#253,.T.);
#236=EDGE_CURVE('',#218,#218,#254,.T.);
#237=EDGE_CURVE('',#219,#219,#255,.T.);
#238=CIRCLE('',#289,10.);
#239=CIRCLE('',#290,10.);
#240=CIRCLE('',#292,7.975);
#241=CIRCLE('',#294,13.315);
#242=CIRCLE('',#296,13.061915977089);
#243=CIRCLE('',#298,9.);
#244=CIRCLE('',#300,9.00000000000001);
#245=CIRCLE('',#304,6.90251002047427);
#246=CIRCLE('',#305,13.3110980084791);
#247=CIRCLE('',#307,5.45110802895355);
#248=CIRCLE('',#309,1.75110802895355);
#249=CIRCLE('',#311,2.14001002047444);
#250=CIRCLE('',#313,8.54859800847928);
#251=CIRCLE('',#315,10.);
#252=CIRCLE('',#317,13.7);
#253=CIRCLE('',#320,8.50000000000001);
#254=CIRCLE('',#322,10.);
#255=CIRCLE('',#323,10.);
#256=PRESENTATION_LAYER_ASSIGNMENT('1','Layer 1',(#285,#286,#287,#288,#50));
#257=PRESENTATION_LAYER_ASSIGNMENT('2','Layer 2',(#48));
#258=PRESENTATION_LAYER_ASSIGNMENT('3','Layer 3',(#49));
#259=STYLED_ITEM('',(#266),#285);
#260=STYLED_ITEM('',(#267),#286);
#261=STYLED_ITEM('',(#268),#287);
#262=STYLED_ITEM('',(#269),#288);
#263=STYLED_ITEM('',(#270),#48);
#264=STYLED_ITEM('',(#271),#49);
#265=STYLED_ITEM('',(#272),#50);
#266=PRESENTATION_STYLE_ASSIGNMENT((#273));
#267=PRESENTATION_STYLE_ASSIGNMENT((#274));
#268=PRESENTATION_STYLE_ASSIGNMENT((#275));
#269=PRESENTATION_STYLE_ASSIGNMENT((#276));
#270=PRESENTATION_STYLE_ASSIGNMENT((#33));
#271=PRESENTATION_STYLE_ASSIGNMENT((#34));
#272=PRESENTATION_STYLE_ASSIGNMENT((#35));
#273=CURVE_STYLE('',#280,POSITIVE_LENGTH_MEASURE(0.18),#277);
#274=CURVE_STYLE('',#281,POSITIVE_LENGTH_MEASURE(0.18),#277);
#275=CURVE_STYLE('',#282,POSITIVE_LENGTH_MEASURE(0.18),#277);
#276=CURVE_STYLE('',#283,POSITIVE_LENGTH_MEASURE(0.18),#277);
#277=COLOUR_RGB('Strong Stone',0.576470588235294,0.54508278019379,0.392156862745098);
#278=COLOUR_RGB('Medium Gray',0.490196078431373,0.490196078431373,0.490196078431373);
#279=COLOUR_RGB('Light Gray',0.8,0.8,0.8);
#280=DRAUGHTING_PRE_DEFINED_CURVE_FONT('continuous');
#281=DRAUGHTING_PRE_DEFINED_CURVE_FONT('continuous');
#282=DRAUGHTING_PRE_DEFINED_CURVE_FONT('continuous');
#283=DRAUGHTING_PRE_DEFINED_CURVE_FONT('continuous');
#284=AXIS2_PLACEMENT_3D('',#413,#327,#328);
#285=AXIS2_PLACEMENT_3D('MCS',#414,#329,#330);
#286=AXIS2_PLACEMENT_3D('PCS',#415,#331,#332);
#287=AXIS2_PLACEMENT_3D('CIP',#416,#333,#334);
#288=AXIS2_PLACEMENT_3D('LCS',#417,#335,#336);
#289=AXIS2_PLACEMENT_3D('',#418,#337,#338);
#290=AXIS2_PLACEMENT_3D('',#420,#339,#340);
#291=AXIS2_PLACEMENT_3D('',#422,#341,#342);
#292=AXIS2_PLACEMENT_3D('',#423,#343,#344);
#293=AXIS2_PLACEMENT_3D('',#425,#345,#346);
#294=AXIS2_PLACEMENT_3D('',#426,#347,#348);
#295=AXIS2_PLACEMENT_3D('',#428,#349,#350);
#296=AXIS2_PLACEMENT_3D('',#429,#351,#352);
#297=AXIS2_PLACEMENT_3D('',#431,#353,#354);
#298=AXIS2_PLACEMENT_3D('',#432,#355,#356);
#299=AXIS2_PLACEMENT_3D('',#434,#357,#358);
#300=AXIS2_PLACEMENT_3D('',#435,#359,#360);
#301=AXIS2_PLACEMENT_3D('',#437,#361,#362);
#302=AXIS2_PLACEMENT_3D('',#438,#363,#364);
#303=AXIS2_PLACEMENT_3D('',#439,#365,#366);
#304=AXIS2_PLACEMENT_3D('',#440,#367,#368);
#305=AXIS2_PLACEMENT_3D('',#442,#369,#370);
#306=AXIS2_PLACEMENT_3D('',#444,#371,#372);
#307=AXIS2_PLACEMENT_3D('',#445,#373,#374);
#308=AXIS2_PLACEMENT_3D('',#447,#375,#376);
#309=AXIS2_PLACEMENT_3D('',#448,#377,#378);
#310=AXIS2_PLACEMENT_3D('',#450,#379,#380);
#311=AXIS2_PLACEMENT_3D('',#451,#381,#382);
#312=AXIS2_PLACEMENT_3D('',#453,#383,#384);
#313=AXIS2_PLACEMENT_3D('',#454,#385,#386);
#314=AXIS2_PLACEMENT_3D('',#456,#387,#388);
#315=AXIS2_PLACEMENT_3D('',#457,#389,#390);
#316=AXIS2_PLACEMENT_3D('',#459,#391,#392);
#317=AXIS2_PLACEMENT_3D('',#460,#393,#394);
#318=AXIS2_PLACEMENT_3D('',#462,#395,#396);
#319=AXIS2_PLACEMENT_3D('',#463,#397,#398);
#320=AXIS2_PLACEMENT_3D('',#464,#399,#400);
#321=AXIS2_PLACEMENT_3D('',#466,#401,#402);
#322=AXIS2_PLACEMENT_3D('',#467,#403,#404);
#323=AXIS2_PLACEMENT_3D('',#469,#405,#406);
#324=AXIS2_PLACEMENT_3D('',#471,#407,#408);
#325=AXIS2_PLACEMENT_3D('',#472,#409,#410);
#326=AXIS2_PLACEMENT_3D('',#473,#411,#412);
#327=DIRECTION('',(0.,0.,1.));
#328=DIRECTION('',(1.,0.,0.));
#329=DIRECTION('',(0.,0.,1.));
#330=DIRECTION('',(1.,0.,0.));
#331=DIRECTION('',(0.,0.,1.));
#332=DIRECTION('',(1.,0.,0.));
#333=DIRECTION('',(0.,0.,1.));
#334=DIRECTION('',(1.,0.,0.));
#335=DIRECTION('',(0.,0.,1.));
#336=DIRECTION('',(1.,0.,0.));
#337=DIRECTION('',(0.,0.,-1.));
#338=DIRECTION('',(-1.,0.,0.));
#339=DIRECTION('',(0.,0.,-1.));
#340=DIRECTION('',(1.,0.,0.));
#341=DIRECTION('',(0.,0.,-1.));
#342=DIRECTION('',(1.,0.,0.));
#343=DIRECTION('',(0.,0.,-1.));
#344=DIRECTION('',(-1.,0.,0.));
#345=DIRECTION('',(0.,0.,-1.));
#346=DIRECTION('',(1.,0.,0.));
#347=DIRECTION('',(0.,0.,-1.));
#348=DIRECTION('',(-1.,0.,0.));
#349=DIRECTION('',(0.,0.,1.));
#350=DIRECTION('',(-1.,0.,2.45216472857885E-17));
#351=DIRECTION('',(0.,0.,-1.));
#352=DIRECTION('',(-1.,0.,0.));
#353=DIRECTION('',(0.,0.,-1.));
#354=DIRECTION('',(1.,0.,-3.35392454042061E-16));
#355=DIRECTION('',(0.,0.,-1.));
#356=DIRECTION('',(-1.,0.,0.));
#357=DIRECTION('',(0.,0.,-1.));
#358=DIRECTION('',(1.,0.,-2.38571198649259E-17));
#359=DIRECTION('',(0.,0.,-1.));
#360=DIRECTION('',(-1.,0.,0.));
#361=DIRECTION('',(0.,0.,-1.));
#362=DIRECTION('',(1.,0.,0.));
#363=DIRECTION('',(0.,0.,-1.));
#364=DIRECTION('',(1.,0.,0.));
#365=DIRECTION('',(0.,0.,1.));
#366=DIRECTION('',(-1.,0.,0.));
#367=DIRECTION('',(0.,0.,-1.));
#368=DIRECTION('',(-1.,0.,0.));
#369=DIRECTION('',(0.,0.,-1.));
#370=DIRECTION('',(-1.,0.,0.));
#371=DIRECTION('',(0.,0.,-1.));
#372=DIRECTION('',(1.,0.,-3.97561897147737E-17));
#373=DIRECTION('',(0.,0.,-1.));
#374=DIRECTION('',(-1.,0.,0.));
#375=DIRECTION('',(0.,0.,1.));
#376=DIRECTION('',(-1.,0.,-9.27919301808521E-18));
#377=DIRECTION('',(0.,0.,-1.));
#378=DIRECTION('',(-1.,0.,0.));
#379=DIRECTION('',(0.,0.,1.));
#380=DIRECTION('',(-1.,0.,1.19061041636914E-17));
#381=DIRECTION('',(0.,0.,-1.));
#382=DIRECTION('',(-1.,0.,0.));
#383=DIRECTION('',(0.,0.,-1.));
#384=DIRECTION('',(1.,0.,0.));
#385=DIRECTION('',(0.,0.,-1.));
#386=DIRECTION('',(-1.,0.,0.));
#387=DIRECTION('',(0.,0.,-1.));
#388=DIRECTION('',(1.,0.,5.20159718503101E-17));
#389=DIRECTION('',(0.,0.,-1.));
#390=DIRECTION('',(-1.,0.,0.));
#391=DIRECTION('',(0.,0.,1.));
#392=DIRECTION('',(-1.,0.,1.4840175386989E-17));
#393=DIRECTION('',(0.,0.,-1.));
#394=DIRECTION('',(-1.,0.,0.));
#395=DIRECTION('',(0.,0.,1.));
#396=DIRECTION('',(-1.,0.,0.));
#397=DIRECTION('',(0.,0.,-1.));
#398=DIRECTION('',(1.,0.,7.39099641367245E-17));
#399=DIRECTION('',(0.,0.,1.));
#400=DIRECTION('',(1.,0.,0.));
#401=DIRECTION('',(0.,0.,1.));
#402=DIRECTION('',(-1.,0.,0.));
#403=DIRECTION('',(0.,0.,-1.));
#404=DIRECTION('',(1.,0.,0.));
#405=DIRECTION('',(0.,0.,-1.));
#406=DIRECTION('',(1.,0.,0.));
#407=DIRECTION('',(0.,0.,-1.));
#408=DIRECTION('',(1.,0.,0.));
#409=DIRECTION('',(0.,0.,1.));
#410=DIRECTION('',(-1.,0.,0.));
#411=DIRECTION('',(0.,0.,-1.));
#412=DIRECTION('',(1.,0.,-1.37403839681332E-17));
#413=CARTESIAN_POINT('',(0.,0.,0.));
#414=CARTESIAN_POINT('',(0.,0.,0.));
#415=CARTESIAN_POINT('',(0.,0.,50.));
#416=CARTESIAN_POINT('',(0.,0.,-60.39));
#417=CARTESIAN_POINT('',(0.,0.,25.));
#418=CARTESIAN_POINT('',(0.,0.,-37.6));
#419=CARTESIAN_POINT('',(-10.,0.,-37.6));
#420=CARTESIAN_POINT('',(0.,0.,0.));
#421=CARTESIAN_POINT('',(10.,0.,0.));
#422=CARTESIAN_POINT('',(0.,0.,0.));
#423=CARTESIAN_POINT('',(0.,0.,-62.6));
#424=CARTESIAN_POINT('',(-7.975,0.,-62.6));
#425=CARTESIAN_POINT('',(0.,0.,-62.6));
#426=CARTESIAN_POINT('',(0.,0.,-53.0295119437));
#427=CARTESIAN_POINT('',(-13.315,0.,-53.0295119437));
#428=CARTESIAN_POINT('',(0.,0.,-62.6));
#429=CARTESIAN_POINT('',(0.,0.,-52.0395119437));
#430=CARTESIAN_POINT('',(-13.061915977089,0.,-52.0395119437));
#431=CARTESIAN_POINT('',(0.,0.,-53.0295119437));
#432=CARTESIAN_POINT('',(0.,0.,-49.694363660902));
#433=CARTESIAN_POINT('',(-9.,0.,-49.694363660902));
#434=CARTESIAN_POINT('',(0.,0.,-52.0395119437));
#435=CARTESIAN_POINT('',(0.,0.,-37.6));
#436=CARTESIAN_POINT('',(-9.00000000000001,0.,-37.6));
#437=CARTESIAN_POINT('',(0.,0.,0.));
#438=CARTESIAN_POINT('',(9.00000000000001,0.,-37.6));
#439=CARTESIAN_POINT('',(0.,0.,0.));
#440=CARTESIAN_POINT('',(0.,0.,-48.4411080289537));
#441=CARTESIAN_POINT('',(-6.90251002047427,0.,-48.4411080289537));
#442=CARTESIAN_POINT('',(0.,0.,-52.1411080289537));
#443=CARTESIAN_POINT('',(-13.3110980084791,0.,-52.1411080289537));
#444=CARTESIAN_POINT('',(0.,0.,-52.1411080289537));
#445=CARTESIAN_POINT('',(0.,0.,-48.8300100204745));
#446=CARTESIAN_POINT('',(-5.45110802895355,0.,-48.8300100204745));
#447=CARTESIAN_POINT('',(0.,0.,-48.4411080289537));
#448=CARTESIAN_POINT('',(0.,0.,-55.2385980084793));
#449=CARTESIAN_POINT('',(-1.75110802895355,0.,-55.2385980084793));
#450=CARTESIAN_POINT('',(0.,0.,-48.8300100204745));
#451=CARTESIAN_POINT('',(0.,0.,-56.69));
#452=CARTESIAN_POINT('',(-2.14001002047444,0.,-56.69));
#453=CARTESIAN_POINT('',(0.,0.,-55.2385980084793));
#454=CARTESIAN_POINT('',(0.,0.,-60.39));
#455=CARTESIAN_POINT('',(-8.54859800847928,0.,-60.39));
#456=CARTESIAN_POINT('',(0.,0.,-56.69));
#457=CARTESIAN_POINT('',(0.,0.,-60.0010980084793));
#458=CARTESIAN_POINT('',(-10.,0.,-60.0010980084793));
#459=CARTESIAN_POINT('',(0.,0.,-60.39));
#460=CARTESIAN_POINT('',(0.,0.,-53.5925100204744));
#461=CARTESIAN_POINT('',(-13.7,0.,-53.5925100204744));
#462=CARTESIAN_POINT('',(0.,0.,-60.0010980084793));
#463=CARTESIAN_POINT('',(0.,0.,-53.5925100204744));
#464=CARTESIAN_POINT('',(0.,0.,50.));
#465=CARTESIAN_POINT('',(8.50000000000001,0.,50.));
#466=CARTESIAN_POINT('',(10.,0.,50.));
#467=CARTESIAN_POINT('',(0.,0.,48.5));
#468=CARTESIAN_POINT('',(10.,0.,48.5));
#469=CARTESIAN_POINT('',(0.,0.,0.));
#470=CARTESIAN_POINT('',(10.,0.,0.));
#471=CARTESIAN_POINT('',(0.,0.,0.));
#472=CARTESIAN_POINT('',(0.,0.,0.));
#473=CARTESIAN_POINT('',(0.,0.,48.5));
#474=MECHANICAL_DESIGN_GEOMETRIC_PRESENTATION_REPRESENTATION('',(#259,#260,
#261,#262,#263,#264,#265),#475);
#475=(
GEOMETRIC_REPRESENTATION_CONTEXT(3)
GLOBAL_UNCERTAINTY_ASSIGNED_CONTEXT((#476))
GLOBAL_UNIT_ASSIGNED_CONTEXT((#482,#478,#477))
REPRESENTATION_CONTEXT('R215.39-2020','TOP_LEVEL_ASSEMBLY_PART')
);
#476=UNCERTAINTY_MEASURE_WITH_UNIT(LENGTH_MEASURE(2.E-5),#482,
'DISTANCE_ACCURACY_VALUE','Maximum Tolerance applied to model');
#477=(
NAMED_UNIT(*)
SI_UNIT($,.STERADIAN.)
SOLID_ANGLE_UNIT()
);
#478=(
CONVERSION_BASED_UNIT('DEGREE',#480)
NAMED_UNIT(#479)
PLANE_ANGLE_UNIT()
);
#479=DIMENSIONAL_EXPONENTS(0.,0.,0.,0.,0.,0.,0.);
#480=PLANE_ANGLE_MEASURE_WITH_UNIT(PLANE_ANGLE_MEASURE(0.0174532925),#481);
#481=(
NAMED_UNIT(*)
PLANE_ANGLE_UNIT()
SI_UNIT($,.RADIAN.)
);
#482=(
LENGTH_UNIT()
NAMED_UNIT(*)
SI_UNIT(.MILLI.,.METRE.)
);
ENDSEC;
END-ISO-10303-21;
