ISO-10303-21;
HEADER;
/* Generated by software containing ST-Developer
 * from STEP Tools, Inc. (www.steptools.com) 
 */
/* OPTION: using custom schema-name function */

FILE_DESCRIPTION(
/* description */ (''),
/* implementation_level */ '2;1');

FILE_NAME(
/* name */ '335.25-125.1317.40-8R-R8.stp',
/* time_stamp */ '2020-03-03T09:31:47+05:00',
/* author */ (''),
/* organization */ (''),
/* preprocessor_version */ 'ST-DEVELOPER v16.7',
/* originating_system */ 'SIEMENS PLM Software NX 12.0',
/* authorisation */ '');

FILE_SCHEMA (('AUTOMOTIVE_DESIGN { 1 0 10303 214 3 1 1 1 }'));
ENDSEC;

DATA;
#10=CONSTRUCTIVE_GEOMETRY_REPRESENTATION_RELATIONSHIP(
'supplemental geometry','',#32,#11);
#11=CONSTRUCTIVE_GEOMETRY_REPRESENTATION('supplemental geometry',(#374,
#375,#376),#609);
#12=PROPERTY_DEFINITION_REPRESENTATION(#16,#14);
#13=PROPERTY_DEFINITION_REPRESENTATION(#17,#15);
#14=REPRESENTATION('',(#18),#609);
#15=REPRESENTATION('',(#19),#609);
#16=PROPERTY_DEFINITION('pmi validation property','',#23);
#17=PROPERTY_DEFINITION('pmi validation property','',#23);
#18=VALUE_REPRESENTATION_ITEM('number of annotations',COUNT_MEASURE(0.));
#19=VALUE_REPRESENTATION_ITEM('number of views',COUNT_MEASURE(0.));
#20=SHAPE_REPRESENTATION_RELATIONSHIP('None',
'relationship between 335.25-125.1317.40-8R-R8-None and 335.25-125.131
7.40-8R-R8-None',#32,#21);
#21=ADVANCED_BREP_SHAPE_REPRESENTATION('335.25-125.1317.40-8R-R8-None',
(#46,#33),#609);
#22=SHAPE_DEFINITION_REPRESENTATION(#23,#32);
#23=PRODUCT_DEFINITION_SHAPE('','',#24);
#24=PRODUCT_DEFINITION(' ','',#26,#25);
#25=PRODUCT_DEFINITION_CONTEXT('part definition',#31,'design');
#26=PRODUCT_DEFINITION_FORMATION_WITH_SPECIFIED_SOURCE(' ',' ',#28,
 .NOT_KNOWN.);
#27=PRODUCT_RELATED_PRODUCT_CATEGORY('part','',(#28));
#28=PRODUCT('inpu0FF0A947n6z1','inpu0FF0A947n6z1',' ',(#29));
#29=PRODUCT_CONTEXT(' ',#31,'mechanical');
#30=APPLICATION_PROTOCOL_DEFINITION('international standard',
'automotive_design',2010,#31);
#31=APPLICATION_CONTEXT(
'core data for automotive mechanical design processes');
#32=SHAPE_REPRESENTATION('335.25-125.1317.40-8R-R8-None',(#373),#609);
#33=MANIFOLD_SOLID_BREP('CUT',#53);
#34=SURFACE_OF_REVOLUTION('',#351,#35);
#35=AXIS1_PLACEMENT('',#607,#516);
#36=SURFACE_STYLE_USAGE(.BOTH.,#38);
#37=SURFACE_STYLE_USAGE(.BOTH.,#39);
#38=SURFACE_SIDE_STYLE('',(#40));
#39=SURFACE_SIDE_STYLE('',(#41));
#40=SURFACE_STYLE_FILL_AREA(#42);
#41=SURFACE_STYLE_FILL_AREA(#43);
#42=FILL_AREA_STYLE('',(#44));
#43=FILL_AREA_STYLE('',(#45));
#44=FILL_AREA_STYLE_COLOUR('',#368);
#45=FILL_AREA_STYLE_COLOUR('',#369);
#46=BREP_WITH_VOIDS('NOCUT',#51,(#47));
#47=ORIENTED_CLOSED_SHELL('',*,#52,.F.);
#48=CONICAL_SURFACE('',#412,2.625,70.);
#49=VERTEX_LOOP('',#299);
#50=VERTEX_LOOP('',#300);
#51=CLOSED_SHELL('',(#112,#113,#114,#115,#116,#117,#118,#119,#120,#121,
#122,#123,#124,#125,#126,#127,#128,#129,#130));
#52=CLOSED_SHELL('',(#131,#132));
#53=CLOSED_SHELL('',(#133));
#54=FACE_OUTER_BOUND('',#184,.T.);
#55=FACE_OUTER_BOUND('',#185,.T.);
#56=FACE_OUTER_BOUND('',#194,.T.);
#57=FACE_OUTER_BOUND('',#195,.T.);
#58=FACE_OUTER_BOUND('',#196,.T.);
#59=FACE_OUTER_BOUND('',#197,.T.);
#60=FACE_OUTER_BOUND('',#198,.T.);
#61=FACE_OUTER_BOUND('',#199,.T.);
#62=FACE_OUTER_BOUND('',#200,.F.);
#63=LINE('',#540,#83);
#64=LINE('',#543,#84);
#65=LINE('',#545,#85);
#66=LINE('',#549,#86);
#67=LINE('',#551,#87);
#68=LINE('',#553,#88);
#69=LINE('',#559,#89);
#70=LINE('',#564,#90);
#71=LINE('',#566,#91);
#72=LINE('',#568,#92);
#73=LINE('',#572,#93);
#74=LINE('',#574,#94);
#75=LINE('',#576,#95);
#76=LINE('',#577,#96);
#77=LINE('',#579,#97);
#78=LINE('',#580,#98);
#79=LINE('',#590,#99);
#80=LINE('',#591,#100);
#81=LINE('',#595,#101);
#82=LINE('',#596,#102);
#83=VECTOR('',#446,1.);
#84=VECTOR('',#447,1.);
#85=VECTOR('',#448,1.);
#86=VECTOR('',#451,1.);
#87=VECTOR('',#452,1.);
#88=VECTOR('',#453,1.);
#89=VECTOR('',#460,1.);
#90=VECTOR('',#463,1.);
#91=VECTOR('',#464,1.);
#92=VECTOR('',#465,1.);
#93=VECTOR('',#468,1.);
#94=VECTOR('',#469,1.);
#95=VECTOR('',#472,1.);
#96=VECTOR('',#473,1.);
#97=VECTOR('',#476,1.);
#98=VECTOR('',#477,1.);
#99=VECTOR('',#492,1.);
#100=VECTOR('',#493,1.);
#101=VECTOR('',#500,1.);
#102=VECTOR('',#501,1.);
#103=CYLINDRICAL_SURFACE('',#386,60.9);
#104=CYLINDRICAL_SURFACE('',#396,20.);
#105=CYLINDRICAL_SURFACE('',#397,20.);
#106=TOROIDAL_SURFACE('',#384,56.9,4.);
#107=TOROIDAL_SURFACE('',#387,56.9,4.);
#108=TOROIDAL_SURFACE('',#399,30.405,2.);
#109=TOROIDAL_SURFACE('',#401,30.405,2.);
#110=TOROIDAL_SURFACE('',#402,27.5002624903444,1.);
#111=TOROIDAL_SURFACE('',#403,27.5002624903444,1.);
#112=ADVANCED_FACE('',(#145,#146),#134,.F.);
#113=ADVANCED_FACE('',(#147,#148),#135,.F.);
#114=ADVANCED_FACE('',(#149,#150),#106,.T.);
#115=ADVANCED_FACE('',(#151,#152),#103,.T.);
#116=ADVANCED_FACE('',(#153,#154),#107,.T.);
#117=ADVANCED_FACE('',(#155,#156),#136,.F.);
#118=ADVANCED_FACE('',(#157,#158),#137,.F.);
#119=ADVANCED_FACE('',(#54),#104,.F.);
#120=ADVANCED_FACE('',(#55),#105,.F.);
#121=ADVANCED_FACE('',(#159,#160),#108,.F.);
#122=ADVANCED_FACE('',(#161,#162),#109,.F.);
#123=ADVANCED_FACE('',(#163,#164),#110,.T.);
#124=ADVANCED_FACE('',(#165,#166),#111,.T.);
#125=ADVANCED_FACE('',(#56),#138,.T.);
#126=ADVANCED_FACE('',(#57),#139,.T.);
#127=ADVANCED_FACE('',(#58),#140,.T.);
#128=ADVANCED_FACE('',(#59),#141,.T.);
#129=ADVANCED_FACE('',(#60),#142,.T.);
#130=ADVANCED_FACE('',(#61),#143,.T.);
#131=ADVANCED_FACE('',(#62),#144,.T.);
#132=ADVANCED_FACE('',(#167,#168),#48,.T.);
#133=ADVANCED_FACE('',(#169),#34,.F.);
#134=PLANE('',#379);
#135=PLANE('',#382);
#136=PLANE('',#391);
#137=PLANE('',#395);
#138=PLANE('',#404);
#139=PLANE('',#405);
#140=PLANE('',#406);
#141=PLANE('',#407);
#142=PLANE('',#408);
#143=PLANE('',#409);
#144=PLANE('',#411);
#145=FACE_BOUND('',#170,.T.);
#146=FACE_BOUND('',#171,.T.);
#147=FACE_BOUND('',#172,.T.);
#148=FACE_BOUND('',#173,.T.);
#149=FACE_BOUND('',#174,.T.);
#150=FACE_BOUND('',#175,.T.);
#151=FACE_BOUND('',#176,.T.);
#152=FACE_BOUND('',#177,.T.);
#153=FACE_BOUND('',#178,.T.);
#154=FACE_BOUND('',#179,.T.);
#155=FACE_BOUND('',#180,.T.);
#156=FACE_BOUND('',#181,.T.);
#157=FACE_BOUND('',#182,.T.);
#158=FACE_BOUND('',#183,.T.);
#159=FACE_BOUND('',#186,.T.);
#160=FACE_BOUND('',#187,.T.);
#161=FACE_BOUND('',#188,.T.);
#162=FACE_BOUND('',#189,.T.);
#163=FACE_BOUND('',#190,.T.);
#164=FACE_BOUND('',#191,.T.);
#165=FACE_BOUND('',#192,.T.);
#166=FACE_BOUND('',#193,.T.);
#167=FACE_BOUND('',#201,.F.);
#168=FACE_BOUND('',#49,.T.);
#169=FACE_BOUND('',#50,.T.);
#170=EDGE_LOOP('',(#202));
#171=EDGE_LOOP('',(#203));
#172=EDGE_LOOP('',(#204));
#173=EDGE_LOOP('',(#205));
#174=EDGE_LOOP('',(#206));
#175=EDGE_LOOP('',(#207));
#176=EDGE_LOOP('',(#208));
#177=EDGE_LOOP('',(#209));
#178=EDGE_LOOP('',(#210));
#179=EDGE_LOOP('',(#211));
#180=EDGE_LOOP('',(#212));
#181=EDGE_LOOP('',(#213,#214,#215,#216,#217,#218,#219,#220));
#182=EDGE_LOOP('',(#221));
#183=EDGE_LOOP('',(#222,#223,#224,#225,#226,#227,#228,#229));
#184=EDGE_LOOP('',(#230,#231,#232,#233));
#185=EDGE_LOOP('',(#234,#235,#236,#237));
#186=EDGE_LOOP('',(#238));
#187=EDGE_LOOP('',(#239));
#188=EDGE_LOOP('',(#240));
#189=EDGE_LOOP('',(#241));
#190=EDGE_LOOP('',(#242));
#191=EDGE_LOOP('',(#243));
#192=EDGE_LOOP('',(#244));
#193=EDGE_LOOP('',(#245));
#194=EDGE_LOOP('',(#246,#247,#248,#249));
#195=EDGE_LOOP('',(#250,#251,#252,#253));
#196=EDGE_LOOP('',(#254,#255,#256,#257));
#197=EDGE_LOOP('',(#258,#259,#260,#261));
#198=EDGE_LOOP('',(#262,#263,#264,#265));
#199=EDGE_LOOP('',(#266,#267,#268,#269));
#200=EDGE_LOOP('',(#270));
#201=EDGE_LOOP('',(#271));
#202=ORIENTED_EDGE('',*,*,#301,.T.);
#203=ORIENTED_EDGE('',*,*,#302,.T.);
#204=ORIENTED_EDGE('',*,*,#303,.T.);
#205=ORIENTED_EDGE('',*,*,#304,.T.);
#206=ORIENTED_EDGE('',*,*,#305,.F.);
#207=ORIENTED_EDGE('',*,*,#303,.F.);
#208=ORIENTED_EDGE('',*,*,#306,.T.);
#209=ORIENTED_EDGE('',*,*,#305,.T.);
#210=ORIENTED_EDGE('',*,*,#301,.F.);
#211=ORIENTED_EDGE('',*,*,#306,.F.);
#212=ORIENTED_EDGE('',*,*,#307,.T.);
#213=ORIENTED_EDGE('',*,*,#308,.F.);
#214=ORIENTED_EDGE('',*,*,#309,.F.);
#215=ORIENTED_EDGE('',*,*,#310,.F.);
#216=ORIENTED_EDGE('',*,*,#311,.F.);
#217=ORIENTED_EDGE('',*,*,#312,.F.);
#218=ORIENTED_EDGE('',*,*,#313,.F.);
#219=ORIENTED_EDGE('',*,*,#314,.F.);
#220=ORIENTED_EDGE('',*,*,#315,.F.);
#221=ORIENTED_EDGE('',*,*,#316,.T.);
#222=ORIENTED_EDGE('',*,*,#317,.F.);
#223=ORIENTED_EDGE('',*,*,#318,.T.);
#224=ORIENTED_EDGE('',*,*,#319,.F.);
#225=ORIENTED_EDGE('',*,*,#320,.F.);
#226=ORIENTED_EDGE('',*,*,#321,.F.);
#227=ORIENTED_EDGE('',*,*,#322,.F.);
#228=ORIENTED_EDGE('',*,*,#323,.F.);
#229=ORIENTED_EDGE('',*,*,#324,.F.);
#230=ORIENTED_EDGE('',*,*,#325,.F.);
#231=ORIENTED_EDGE('',*,*,#315,.T.);
#232=ORIENTED_EDGE('',*,*,#326,.F.);
#233=ORIENTED_EDGE('',*,*,#318,.F.);
#234=ORIENTED_EDGE('',*,*,#327,.F.);
#235=ORIENTED_EDGE('',*,*,#322,.T.);
#236=ORIENTED_EDGE('',*,*,#328,.F.);
#237=ORIENTED_EDGE('',*,*,#311,.T.);
#238=ORIENTED_EDGE('',*,*,#329,.T.);
#239=ORIENTED_EDGE('',*,*,#304,.F.);
#240=ORIENTED_EDGE('',*,*,#330,.T.);
#241=ORIENTED_EDGE('',*,*,#302,.F.);
#242=ORIENTED_EDGE('',*,*,#316,.F.);
#243=ORIENTED_EDGE('',*,*,#329,.F.);
#244=ORIENTED_EDGE('',*,*,#330,.F.);
#245=ORIENTED_EDGE('',*,*,#307,.F.);
#246=ORIENTED_EDGE('',*,*,#313,.T.);
#247=ORIENTED_EDGE('',*,*,#331,.T.);
#248=ORIENTED_EDGE('',*,*,#320,.T.);
#249=ORIENTED_EDGE('',*,*,#332,.F.);
#250=ORIENTED_EDGE('',*,*,#321,.T.);
#251=ORIENTED_EDGE('',*,*,#331,.F.);
#252=ORIENTED_EDGE('',*,*,#312,.T.);
#253=ORIENTED_EDGE('',*,*,#328,.T.);
#254=ORIENTED_EDGE('',*,*,#319,.T.);
#255=ORIENTED_EDGE('',*,*,#326,.T.);
#256=ORIENTED_EDGE('',*,*,#314,.T.);
#257=ORIENTED_EDGE('',*,*,#332,.T.);
#258=ORIENTED_EDGE('',*,*,#309,.T.);
#259=ORIENTED_EDGE('',*,*,#333,.T.);
#260=ORIENTED_EDGE('',*,*,#324,.T.);
#261=ORIENTED_EDGE('',*,*,#334,.F.);
#262=ORIENTED_EDGE('',*,*,#317,.T.);
#263=ORIENTED_EDGE('',*,*,#333,.F.);
#264=ORIENTED_EDGE('',*,*,#308,.T.);
#265=ORIENTED_EDGE('',*,*,#325,.T.);
#266=ORIENTED_EDGE('',*,*,#323,.T.);
#267=ORIENTED_EDGE('',*,*,#327,.T.);
#268=ORIENTED_EDGE('',*,*,#310,.T.);
#269=ORIENTED_EDGE('',*,*,#334,.T.);
#270=ORIENTED_EDGE('',*,*,#335,.F.);
#271=ORIENTED_EDGE('',*,*,#335,.T.);
#272=VERTEX_POINT('',#522);
#273=VERTEX_POINT('',#524);
#274=VERTEX_POINT('',#527);
#275=VERTEX_POINT('',#529);
#276=VERTEX_POINT('',#532);
#277=VERTEX_POINT('',#535);
#278=VERTEX_POINT('',#539);
#279=VERTEX_POINT('',#541);
#280=VERTEX_POINT('',#542);
#281=VERTEX_POINT('',#544);
#282=VERTEX_POINT('',#546);
#283=VERTEX_POINT('',#548);
#284=VERTEX_POINT('',#550);
#285=VERTEX_POINT('',#552);
#286=VERTEX_POINT('',#554);
#287=VERTEX_POINT('',#558);
#288=VERTEX_POINT('',#560);
#289=VERTEX_POINT('',#561);
#290=VERTEX_POINT('',#563);
#291=VERTEX_POINT('',#565);
#292=VERTEX_POINT('',#567);
#293=VERTEX_POINT('',#569);
#294=VERTEX_POINT('',#571);
#295=VERTEX_POINT('',#573);
#296=VERTEX_POINT('',#583);
#297=VERTEX_POINT('',#586);
#298=VERTEX_POINT('',#601);
#299=VERTEX_POINT('',#603);
#300=VERTEX_POINT('',#605);
#301=EDGE_CURVE('',#272,#272,#336,.T.);
#302=EDGE_CURVE('',#273,#273,#337,.T.);
#303=EDGE_CURVE('',#274,#274,#338,.T.);
#304=EDGE_CURVE('',#275,#275,#339,.T.);
#305=EDGE_CURVE('',#276,#276,#340,.T.);
#306=EDGE_CURVE('',#277,#277,#341,.T.);
#307=EDGE_CURVE('',#278,#278,#342,.T.);
#308=EDGE_CURVE('',#279,#280,#63,.T.);
#309=EDGE_CURVE('',#281,#279,#64,.T.);
#310=EDGE_CURVE('',#282,#281,#65,.T.);
#311=EDGE_CURVE('',#283,#282,#343,.T.);
#312=EDGE_CURVE('',#284,#283,#66,.T.);
#313=EDGE_CURVE('',#285,#284,#67,.T.);
#314=EDGE_CURVE('',#286,#285,#68,.T.);
#315=EDGE_CURVE('',#280,#286,#344,.T.);
#316=EDGE_CURVE('',#287,#287,#345,.T.);
#317=EDGE_CURVE('',#288,#289,#69,.T.);
#318=EDGE_CURVE('',#288,#290,#346,.T.);
#319=EDGE_CURVE('',#291,#290,#70,.T.);
#320=EDGE_CURVE('',#292,#291,#71,.T.);
#321=EDGE_CURVE('',#293,#292,#72,.T.);
#322=EDGE_CURVE('',#294,#293,#347,.T.);
#323=EDGE_CURVE('',#295,#294,#73,.T.);
#324=EDGE_CURVE('',#289,#295,#74,.T.);
#325=EDGE_CURVE('',#280,#288,#75,.T.);
#326=EDGE_CURVE('',#290,#286,#76,.T.);
#327=EDGE_CURVE('',#294,#282,#77,.T.);
#328=EDGE_CURVE('',#283,#293,#78,.T.);
#329=EDGE_CURVE('',#296,#296,#348,.T.);
#330=EDGE_CURVE('',#297,#297,#349,.T.);
#331=EDGE_CURVE('',#284,#292,#79,.T.);
#332=EDGE_CURVE('',#285,#291,#80,.T.);
#333=EDGE_CURVE('',#279,#289,#81,.T.);
#334=EDGE_CURVE('',#281,#295,#82,.T.);
#335=EDGE_CURVE('',#298,#298,#350,.T.);
#336=CIRCLE('',#377,56.9);
#337=CIRCLE('',#378,30.405);
#338=CIRCLE('',#380,56.9);
#339=CIRCLE('',#381,30.405);
#340=CIRCLE('',#383,60.9);
#341=CIRCLE('',#385,60.9);
#342=CIRCLE('',#388,27.5002624903444);
#343=CIRCLE('',#389,20.);
#344=CIRCLE('',#390,20.);
#345=CIRCLE('',#392,27.5002624903444);
#346=CIRCLE('',#393,20.);
#347=CIRCLE('',#394,20.);
#348=CIRCLE('',#398,28.4685083268963);
#349=CIRCLE('',#400,28.4685083268963);
#350=CIRCLE('',#410,2.625);
#351=CIRCLE('',#413,8.);
#352=PRESENTATION_LAYER_ASSIGNMENT('2','Layer 2',(#374,#375,#376,#46));
#353=PRESENTATION_LAYER_ASSIGNMENT('3','Layer 3',(#33));
#354=STYLED_ITEM('',(#359),#374);
#355=STYLED_ITEM('',(#360),#375);
#356=STYLED_ITEM('',(#361),#376);
#357=STYLED_ITEM('',(#362),#46);
#358=STYLED_ITEM('',(#363),#33);
#359=PRESENTATION_STYLE_ASSIGNMENT((#364));
#360=PRESENTATION_STYLE_ASSIGNMENT((#365));
#361=PRESENTATION_STYLE_ASSIGNMENT((#366));
#362=PRESENTATION_STYLE_ASSIGNMENT((#36));
#363=PRESENTATION_STYLE_ASSIGNMENT((#37));
#364=CURVE_STYLE('',#370,POSITIVE_LENGTH_MEASURE(0.18),#367);
#365=CURVE_STYLE('',#371,POSITIVE_LENGTH_MEASURE(0.18),#367);
#366=CURVE_STYLE('',#372,POSITIVE_LENGTH_MEASURE(0.18),#367);
#367=COLOUR_RGB('Strong Stone',0.576470588235294,0.54508278019379,0.392156862745098);
#368=COLOUR_RGB('Medium Gray',0.490196078431373,0.490196078431373,0.490196078431373);
#369=COLOUR_RGB('Light Gray',0.8,0.8,0.8);
#370=DRAUGHTING_PRE_DEFINED_CURVE_FONT('continuous');
#371=DRAUGHTING_PRE_DEFINED_CURVE_FONT('continuous');
#372=DRAUGHTING_PRE_DEFINED_CURVE_FONT('continuous');
#373=AXIS2_PLACEMENT_3D('',#517,#414,#415);
#374=AXIS2_PLACEMENT_3D('PCS',#518,#416,#417);
#375=AXIS2_PLACEMENT_3D('MCS',#519,#418,#419);
#376=AXIS2_PLACEMENT_3D('CIP',#520,#420,#421);
#377=AXIS2_PLACEMENT_3D('',#521,#422,#423);
#378=AXIS2_PLACEMENT_3D('',#523,#424,#425);
#379=AXIS2_PLACEMENT_3D('',#525,#426,#427);
#380=AXIS2_PLACEMENT_3D('',#526,#428,#429);
#381=AXIS2_PLACEMENT_3D('',#528,#430,#431);
#382=AXIS2_PLACEMENT_3D('',#530,#432,#433);
#383=AXIS2_PLACEMENT_3D('',#531,#434,#435);
#384=AXIS2_PLACEMENT_3D('',#533,#436,#437);
#385=AXIS2_PLACEMENT_3D('',#534,#438,#439);
#386=AXIS2_PLACEMENT_3D('',#536,#440,#441);
#387=AXIS2_PLACEMENT_3D('',#537,#442,#443);
#388=AXIS2_PLACEMENT_3D('',#538,#444,#445);
#389=AXIS2_PLACEMENT_3D('',#547,#449,#450);
#390=AXIS2_PLACEMENT_3D('',#555,#454,#455);
#391=AXIS2_PLACEMENT_3D('',#556,#456,#457);
#392=AXIS2_PLACEMENT_3D('',#557,#458,#459);
#393=AXIS2_PLACEMENT_3D('',#562,#461,#462);
#394=AXIS2_PLACEMENT_3D('',#570,#466,#467);
#395=AXIS2_PLACEMENT_3D('',#575,#470,#471);
#396=AXIS2_PLACEMENT_3D('',#578,#474,#475);
#397=AXIS2_PLACEMENT_3D('',#581,#478,#479);
#398=AXIS2_PLACEMENT_3D('',#582,#480,#481);
#399=AXIS2_PLACEMENT_3D('',#584,#482,#483);
#400=AXIS2_PLACEMENT_3D('',#585,#484,#485);
#401=AXIS2_PLACEMENT_3D('',#587,#486,#487);
#402=AXIS2_PLACEMENT_3D('',#588,#488,#489);
#403=AXIS2_PLACEMENT_3D('',#589,#490,#491);
#404=AXIS2_PLACEMENT_3D('',#592,#494,#495);
#405=AXIS2_PLACEMENT_3D('',#593,#496,#497);
#406=AXIS2_PLACEMENT_3D('',#594,#498,#499);
#407=AXIS2_PLACEMENT_3D('',#597,#502,#503);
#408=AXIS2_PLACEMENT_3D('',#598,#504,#505);
#409=AXIS2_PLACEMENT_3D('',#599,#506,#507);
#410=AXIS2_PLACEMENT_3D('',#600,#508,#509);
#411=AXIS2_PLACEMENT_3D('',#602,#510,#511);
#412=AXIS2_PLACEMENT_3D('',#604,#512,#513);
#413=AXIS2_PLACEMENT_3D('',#606,#514,#515);
#414=DIRECTION('',(0.,0.,1.));
#415=DIRECTION('',(1.,0.,0.));
#416=DIRECTION('',(0.,0.,1.));
#417=DIRECTION('',(1.,0.,0.));
#418=DIRECTION('',(0.,0.,1.));
#419=DIRECTION('',(1.,0.,0.));
#420=DIRECTION('',(0.,0.,1.));
#421=DIRECTION('',(1.,0.,0.));
#422=DIRECTION('',(0.,0.,1.));
#423=DIRECTION('',(-1.,0.,0.));
#424=DIRECTION('',(0.,0.,-1.));
#425=DIRECTION('',(-1.,0.,0.));
#426=DIRECTION('',(0.,0.,-1.));
#427=DIRECTION('',(-1.,0.,0.));
#428=DIRECTION('',(0.,0.,-1.));
#429=DIRECTION('',(1.,0.,0.));
#430=DIRECTION('',(0.,0.,1.));
#431=DIRECTION('',(1.,0.,0.));
#432=DIRECTION('',(0.,0.,1.));
#433=DIRECTION('',(1.,0.,0.));
#434=DIRECTION('',(0.,0.,1.));
#435=DIRECTION('',(1.,0.,0.));
#436=DIRECTION('',(0.,0.,1.));
#437=DIRECTION('',(1.,0.,0.));
#438=DIRECTION('',(0.,0.,-1.));
#439=DIRECTION('',(-1.,0.,0.));
#440=DIRECTION('',(0.,0.,1.));
#441=DIRECTION('',(1.,0.,0.));
#442=DIRECTION('',(0.,0.,-1.));
#443=DIRECTION('',(-1.,0.,0.));
#444=DIRECTION('',(0.,0.,1.));
#445=DIRECTION('',(-1.,0.,0.));
#446=DIRECTION('',(0.923879532511286,-0.382683432365092,0.));
#447=DIRECTION('',(-0.382683432365092,-0.923879532511286,0.));
#448=DIRECTION('',(-0.923879532511286,0.382683432365092,0.));
#449=DIRECTION('',(0.,0.,1.));
#450=DIRECTION('',(-1.,0.,0.));
#451=DIRECTION('',(-1.,7.35052320329155E-17,0.));
#452=DIRECTION('',(0.,1.,0.));
#453=DIRECTION('',(1.,7.35052320329155E-17,0.));
#454=DIRECTION('',(0.,0.,1.));
#455=DIRECTION('',(-1.,0.,0.));
#456=DIRECTION('',(0.,0.,-1.));
#457=DIRECTION('',(-1.,0.,0.));
#458=DIRECTION('',(0.,0.,-1.));
#459=DIRECTION('',(1.,0.,0.));
#460=DIRECTION('',(-0.923879532511286,0.382683432365092,0.));
#461=DIRECTION('',(0.,0.,1.));
#462=DIRECTION('',(1.,0.,0.));
#463=DIRECTION('',(-1.,-7.35052320329155E-17,0.));
#464=DIRECTION('',(0.,-1.,0.));
#465=DIRECTION('',(1.,-7.35052320329155E-17,0.));
#466=DIRECTION('',(0.,0.,-1.));
#467=DIRECTION('',(1.,0.,0.));
#468=DIRECTION('',(0.923879532511286,-0.382683432365092,0.));
#469=DIRECTION('',(0.382683432365092,0.923879532511286,0.));
#470=DIRECTION('',(0.,0.,1.));
#471=DIRECTION('',(1.,0.,0.));
#472=DIRECTION('',(0.,0.,-1.));
#473=DIRECTION('',(0.,0.,1.));
#474=DIRECTION('',(0.,0.,-1.));
#475=DIRECTION('',(0.,1.,0.));
#476=DIRECTION('',(0.,0.,1.));
#477=DIRECTION('',(0.,0.,-1.));
#478=DIRECTION('',(0.,0.,-1.));
#479=DIRECTION('',(0.,1.,0.));
#480=DIRECTION('',(0.,0.,1.));
#481=DIRECTION('',(-1.,0.,0.));
#482=DIRECTION('',(0.,0.,1.));
#483=DIRECTION('',(1.,0.,0.));
#484=DIRECTION('',(0.,0.,-1.));
#485=DIRECTION('',(1.,0.,0.));
#486=DIRECTION('',(0.,0.,-1.));
#487=DIRECTION('',(-1.,0.,0.));
#488=DIRECTION('',(0.,0.,-1.));
#489=DIRECTION('',(-1.,0.,0.));
#490=DIRECTION('',(0.,0.,1.));
#491=DIRECTION('',(1.,0.,0.));
#492=DIRECTION('',(0.,0.,-1.));
#493=DIRECTION('',(0.,0.,-1.));
#494=DIRECTION('',(-1.,0.,0.));
#495=DIRECTION('',(0.,0.,-1.));
#496=DIRECTION('',(-7.35052320329155E-17,-1.,0.));
#497=DIRECTION('',(1.,-7.37257477290143E-17,0.));
#498=DIRECTION('',(-7.35052320329155E-17,1.,0.));
#499=DIRECTION('',(-1.,-7.37257477290143E-17,0.));
#500=DIRECTION('',(0.,0.,-1.));
#501=DIRECTION('',(0.,0.,-1.));
#502=DIRECTION('',(0.923879532511286,-0.382683432365092,0.));
#503=DIRECTION('',(0.,0.,-1.));
#504=DIRECTION('',(0.382683432365092,0.923879532511286,0.));
#505=DIRECTION('',(-0.923879532511286,0.382683432365092,0.));
#506=DIRECTION('',(-0.382683432365092,-0.923879532511286,0.));
#507=DIRECTION('',(0.923879532511286,-0.382683432365092,0.));
#508=DIRECTION('',(-0.409126902895444,-0.912477494148312,0.));
#509=DIRECTION('',(0.912477494148312,-0.409126902895444,0.));
#510=DIRECTION('',(-0.409126902895444,-0.912477494148312,0.));
#511=DIRECTION('',(-0.912477494148312,0.409126902895444,0.));
#512=DIRECTION('',(-0.409126902895444,-0.912477494148312,0.));
#513=DIRECTION('',(-0.912477494148311,0.409126902895444,0.));
#514=DIRECTION('',(0.991196213192891,-0.121703591805512,0.0521373445210821));
#515=DIRECTION('',(0.121986906240063,0.99252910281213,-0.00227481360275137));
#516=DIRECTION('',(0.,0.,-1.));
#517=CARTESIAN_POINT('',(0.,0.,0.));
#518=CARTESIAN_POINT('',(0.,0.,0.));
#519=CARTESIAN_POINT('',(0.,0.,0.));
#520=CARTESIAN_POINT('',(0.,0.,-16.5));
#521=CARTESIAN_POINT('',(0.,0.,-2.25000000000006));
#522=CARTESIAN_POINT('',(-56.9,0.,-2.25000000000006));
#523=CARTESIAN_POINT('',(0.,0.,-2.25000000000006));
#524=CARTESIAN_POINT('',(-30.405,0.,-2.25000000000006));
#525=CARTESIAN_POINT('',(60.9,0.,-2.25000000000006));
#526=CARTESIAN_POINT('',(0.,0.,-14.7499999999999));
#527=CARTESIAN_POINT('',(56.9,0.,-14.7499999999999));
#528=CARTESIAN_POINT('',(0.,0.,-14.7499999999999));
#529=CARTESIAN_POINT('',(30.405,0.,-14.7499999999999));
#530=CARTESIAN_POINT('',(28.405,0.,-14.7499999999999));
#531=CARTESIAN_POINT('',(0.,0.,-10.7499999999999));
#532=CARTESIAN_POINT('',(60.9,0.,-10.7499999999999));
#533=CARTESIAN_POINT('',(0.,0.,-10.7499999999999));
#534=CARTESIAN_POINT('',(0.,0.,-6.25000000000006));
#535=CARTESIAN_POINT('',(-60.9,0.,-6.25000000000006));
#536=CARTESIAN_POINT('',(0.,0.,-8.5));
#537=CARTESIAN_POINT('',(0.,0.,-6.25000000000006));
#538=CARTESIAN_POINT('',(0.,0.,0.));
#539=CARTESIAN_POINT('',(-27.5002624903444,0.,0.));
#540=CARTESIAN_POINT('',(22.3317668979764,-14.6620817223584,0.));
#541=CARTESIAN_POINT('',(-23.7169741290918,4.41193134125975,0.));
#542=CARTESIAN_POINT('',(-19.804267378416,2.79123513954105,0.));
#543=CARTESIAN_POINT('',(-17.6437410270682,19.0740130636182,0.));
#544=CARTESIAN_POINT('',(-19.8901398054409,13.6507266663726,0.));
#545=CARTESIAN_POINT('',(26.1586012216274,-5.42328639724556,0.));
#546=CARTESIAN_POINT('',(-15.9774330547651,12.0300304646539,0.));
#547=CARTESIAN_POINT('',(0.,0.,0.));
#548=CARTESIAN_POINT('',(19.3649167310371,5.,0.));
#549=CARTESIAN_POINT('',(28.405,5.,0.));
#550=CARTESIAN_POINT('',(23.6,5.,0.));
#551=CARTESIAN_POINT('',(23.6,0.,0.));
#552=CARTESIAN_POINT('',(23.6,-5.,0.));
#553=CARTESIAN_POINT('',(28.405,-5.,0.));
#554=CARTESIAN_POINT('',(19.3649167310371,-5.,0.));
#555=CARTESIAN_POINT('',(0.,0.,0.));
#556=CARTESIAN_POINT('',(28.405,0.,0.));
#557=CARTESIAN_POINT('',(0.,0.,-17.));
#558=CARTESIAN_POINT('',(27.5002624903444,0.,-17.));
#559=CARTESIAN_POINT('',(-1.91341716182546,-4.61939766255643,-17.));
#560=CARTESIAN_POINT('',(-19.804267378416,2.79123513954104,-17.));
#561=CARTESIAN_POINT('',(-23.7169741290918,4.41193134125975,-17.));
#562=CARTESIAN_POINT('',(0.,0.,-17.));
#563=CARTESIAN_POINT('',(19.3649167310371,-5.,-17.));
#564=CARTESIAN_POINT('',(3.67526160164578E-16,-5.,-17.));
#565=CARTESIAN_POINT('',(23.6,-5.,-17.));
#566=CARTESIAN_POINT('',(23.6,0.,-17.));
#567=CARTESIAN_POINT('',(23.6,5.,-17.));
#568=CARTESIAN_POINT('',(3.67526160164578E-16,5.,-17.));
#569=CARTESIAN_POINT('',(19.3649167310371,5.,-17.));
#570=CARTESIAN_POINT('',(0.,0.,-17.));
#571=CARTESIAN_POINT('',(-15.9774330547651,12.0300304646539,-17.));
#572=CARTESIAN_POINT('',(1.91341716182546,4.61939766255643,-17.));
#573=CARTESIAN_POINT('',(-19.8901398054409,13.6507266663726,-17.));
#574=CARTESIAN_POINT('',(-21.8035569672663,9.03132900381617,-17.));
#575=CARTESIAN_POINT('',(0.,0.,-17.));
#576=CARTESIAN_POINT('',(-19.804267378416,2.79123513954104,11.5));
#577=CARTESIAN_POINT('',(19.3649167310371,-5.,11.5));
#578=CARTESIAN_POINT('',(0.,0.,11.5));
#579=CARTESIAN_POINT('',(-15.9774330547651,12.0300304646539,11.5));
#580=CARTESIAN_POINT('',(19.3649167310371,5.,11.5));
#581=CARTESIAN_POINT('',(0.,0.,11.5));
#582=CARTESIAN_POINT('',(0.,0.,-16.25));
#583=CARTESIAN_POINT('',(-28.4685083268963,0.,-16.25));
#584=CARTESIAN_POINT('',(0.,0.,-16.7499999999999));
#585=CARTESIAN_POINT('',(0.,0.,-0.75000000000001));
#586=CARTESIAN_POINT('',(28.4685083268963,0.,-0.75000000000001));
#587=CARTESIAN_POINT('',(0.,0.,-0.250000000000061));
#588=CARTESIAN_POINT('',(0.,0.,-16.));
#589=CARTESIAN_POINT('',(0.,0.,-1.));
#590=CARTESIAN_POINT('',(23.6,5.,11.5));
#591=CARTESIAN_POINT('',(23.6,-5.,11.5));
#592=CARTESIAN_POINT('',(23.6,-5.,11.5));
#593=CARTESIAN_POINT('',(23.6,5.,11.5));
#594=CARTESIAN_POINT('',(-3.5527136788005E-15,-5.,11.5));
#595=CARTESIAN_POINT('',(-23.7169741290918,4.41193134125975,11.5));
#596=CARTESIAN_POINT('',(-19.8901398054409,13.6507266663726,11.5));
#597=CARTESIAN_POINT('',(-19.8901398054409,13.6507266663726,11.5));
#598=CARTESIAN_POINT('',(-23.7169741290918,4.41193134125974,11.5));
#599=CARTESIAN_POINT('',(1.91341716182546,4.61939766255643,11.5));
#600=CARTESIAN_POINT('',(-8.5028471053003,-20.9369923901432,-8.5));
#601=CARTESIAN_POINT('',(-6.10759368316098,-22.0109505102437,-8.5));
#602=CARTESIAN_POINT('',(-8.5028471053003,-20.9369923901432,-8.5));
#603=CARTESIAN_POINT('',(-8.11195831673522,-20.0651914409602,-8.5));
#604=CARTESIAN_POINT('',(-8.5028471053003,-20.9369923901432,-8.5));
#605=CARTESIAN_POINT('',(15.3109730422773,63.1219080993281,-8.54409984615109));
#606=CARTESIAN_POINT('',(14.3350777923568,55.1816752768311,-8.52590133732908));
#607=CARTESIAN_POINT('',(0.,0.,0.));
#608=MECHANICAL_DESIGN_GEOMETRIC_PRESENTATION_REPRESENTATION('',(#354,#355,
#356,#357,#358),#609);
#609=(
GEOMETRIC_REPRESENTATION_CONTEXT(3)
GLOBAL_UNCERTAINTY_ASSIGNED_CONTEXT((#610))
GLOBAL_UNIT_ASSIGNED_CONTEXT((#616,#612,#611))
REPRESENTATION_CONTEXT('335.25-125.1317','TOP_LEVEL_ASSEMBLY_PART')
);
#610=UNCERTAINTY_MEASURE_WITH_UNIT(LENGTH_MEASURE(2.E-5),#616,
'DISTANCE_ACCURACY_VALUE','Maximum Tolerance applied to model');
#611=(
NAMED_UNIT(*)
SI_UNIT($,.STERADIAN.)
SOLID_ANGLE_UNIT()
);
#612=(
CONVERSION_BASED_UNIT('DEGREE',#614)
NAMED_UNIT(#613)
PLANE_ANGLE_UNIT()
);
#613=DIMENSIONAL_EXPONENTS(0.,0.,0.,0.,0.,0.,0.);
#614=PLANE_ANGLE_MEASURE_WITH_UNIT(PLANE_ANGLE_MEASURE(0.0174532925),#615);
#615=(
NAMED_UNIT(*)
PLANE_ANGLE_UNIT()
SI_UNIT($,.RADIAN.)
);
#616=(
LENGTH_UNIT()
NAMED_UNIT(*)
SI_UNIT(.MILLI.,.METRE.)
);
ENDSEC;
END-ISO-10303-21;
