ISO-10303-21;
HEADER;
/* Generated by software containing ST-Developer
 * from STEP Tools, Inc. (www.steptools.com) 
 */
/* OPTION: using custom schema-name function */

FILE_DESCRIPTION(
/* description */ (''),
/* implementation_level */ '2;1');

FILE_NAME(
/* name */ '335.25-125.1317.40-8L-R8.stp',
/* time_stamp */ '2020-03-03T09:31:47+05:00',
/* author */ (''),
/* organization */ (''),
/* preprocessor_version */ 'ST-DEVELOPER v16.7',
/* originating_system */ 'SIEMENS PLM Software NX 12.0',
/* authorisation */ '');

FILE_SCHEMA (('AUTOMOTIVE_DESIGN { 1 0 10303 214 3 1 1 1 }'));
ENDSEC;

DATA;
#10=CONSTRUCTIVE_GEOMETRY_REPRESENTATION_RELATIONSHIP(
'supplemental geometry','',#32,#11);
#11=CONSTRUCTIVE_GEOMETRY_REPRESENTATION('supplemental geometry',(#356,
#357,#358),#577);
#12=PROPERTY_DEFINITION_REPRESENTATION(#16,#14);
#13=PROPERTY_DEFINITION_REPRESENTATION(#17,#15);
#14=REPRESENTATION('',(#18),#577);
#15=REPRESENTATION('',(#19),#577);
#16=PROPERTY_DEFINITION('pmi validation property','',#23);
#17=PROPERTY_DEFINITION('pmi validation property','',#23);
#18=VALUE_REPRESENTATION_ITEM('number of annotations',COUNT_MEASURE(0.));
#19=VALUE_REPRESENTATION_ITEM('number of views',COUNT_MEASURE(0.));
#20=SHAPE_REPRESENTATION_RELATIONSHIP('None',
'relationship between 335.25-125.1317.40-8L-R8-None and 335.25-125.131
7.40-8L-R8-None',#32,#21);
#21=ADVANCED_BREP_SHAPE_REPRESENTATION('335.25-125.1317.40-8L-R8-None',
(#46,#47),#577);
#22=SHAPE_DEFINITION_REPRESENTATION(#23,#32);
#23=PRODUCT_DEFINITION_SHAPE('','',#24);
#24=PRODUCT_DEFINITION(' ','',#26,#25);
#25=PRODUCT_DEFINITION_CONTEXT('part definition',#31,'design');
#26=PRODUCT_DEFINITION_FORMATION_WITH_SPECIFIED_SOURCE(' ',' ',#28,
 .NOT_KNOWN.);
#27=PRODUCT_RELATED_PRODUCT_CATEGORY('part','',(#28));
#28=PRODUCT('inpu0FF0A947n74b','inpu0FF0A947n74b',' ',(#29));
#29=PRODUCT_CONTEXT(' ',#31,'mechanical');
#30=APPLICATION_PROTOCOL_DEFINITION('international standard',
'automotive_design',2010,#31);
#31=APPLICATION_CONTEXT(
'core data for automotive mechanical design processes');
#32=SHAPE_REPRESENTATION('335.25-125.1317.40-8L-R8-None',(#355),#577);
#33=SURFACE_OF_REVOLUTION('',#333,#34);
#34=AXIS1_PLACEMENT('',#575,#489);
#35=VERTEX_LOOP('',#284);
#36=SURFACE_STYLE_USAGE(.BOTH.,#38);
#37=SURFACE_STYLE_USAGE(.BOTH.,#39);
#38=SURFACE_SIDE_STYLE('',(#40));
#39=SURFACE_SIDE_STYLE('',(#41));
#40=SURFACE_STYLE_FILL_AREA(#42);
#41=SURFACE_STYLE_FILL_AREA(#43);
#42=FILL_AREA_STYLE('',(#44));
#43=FILL_AREA_STYLE('',(#45));
#44=FILL_AREA_STYLE_COLOUR('',#350);
#45=FILL_AREA_STYLE_COLOUR('',#351);
#46=MANIFOLD_SOLID_BREP('NOCUT',#48);
#47=MANIFOLD_SOLID_BREP('CUT',#49);
#48=CLOSED_SHELL('',(#107,#108,#109,#110,#111,#112,#113,#114,#115,#116,
#117,#118,#119,#120,#121,#122,#123,#124,#125));
#49=CLOSED_SHELL('',(#126));
#50=FACE_OUTER_BOUND('',#174,.T.);
#51=FACE_OUTER_BOUND('',#175,.T.);
#52=FACE_OUTER_BOUND('',#184,.T.);
#53=FACE_OUTER_BOUND('',#185,.T.);
#54=FACE_OUTER_BOUND('',#186,.T.);
#55=FACE_OUTER_BOUND('',#187,.T.);
#56=FACE_OUTER_BOUND('',#188,.T.);
#57=FACE_OUTER_BOUND('',#189,.T.);
#58=LINE('',#513,#78);
#59=LINE('',#516,#79);
#60=LINE('',#518,#80);
#61=LINE('',#522,#81);
#62=LINE('',#524,#82);
#63=LINE('',#526,#83);
#64=LINE('',#532,#84);
#65=LINE('',#537,#85);
#66=LINE('',#539,#86);
#67=LINE('',#541,#87);
#68=LINE('',#545,#88);
#69=LINE('',#547,#89);
#70=LINE('',#549,#90);
#71=LINE('',#550,#91);
#72=LINE('',#552,#92);
#73=LINE('',#553,#93);
#74=LINE('',#563,#94);
#75=LINE('',#564,#95);
#76=LINE('',#568,#96);
#77=LINE('',#569,#97);
#78=VECTOR('',#425,1.);
#79=VECTOR('',#426,1.);
#80=VECTOR('',#427,1.);
#81=VECTOR('',#430,1.);
#82=VECTOR('',#431,1.);
#83=VECTOR('',#432,1.);
#84=VECTOR('',#439,1.);
#85=VECTOR('',#442,1.);
#86=VECTOR('',#443,1.);
#87=VECTOR('',#444,1.);
#88=VECTOR('',#447,1.);
#89=VECTOR('',#448,1.);
#90=VECTOR('',#451,1.);
#91=VECTOR('',#452,1.);
#92=VECTOR('',#455,1.);
#93=VECTOR('',#456,1.);
#94=VECTOR('',#471,1.);
#95=VECTOR('',#472,1.);
#96=VECTOR('',#479,1.);
#97=VECTOR('',#480,1.);
#98=CYLINDRICAL_SURFACE('',#368,60.9);
#99=CYLINDRICAL_SURFACE('',#378,20.);
#100=CYLINDRICAL_SURFACE('',#379,20.);
#101=TOROIDAL_SURFACE('',#366,56.9,4.);
#102=TOROIDAL_SURFACE('',#369,56.9,4.);
#103=TOROIDAL_SURFACE('',#381,30.405,2.);
#104=TOROIDAL_SURFACE('',#383,30.405,2.);
#105=TOROIDAL_SURFACE('',#384,27.5002624903444,1.);
#106=TOROIDAL_SURFACE('',#385,27.5002624903444,1.);
#107=ADVANCED_FACE('',(#137,#138),#127,.F.);
#108=ADVANCED_FACE('',(#139,#140),#128,.F.);
#109=ADVANCED_FACE('',(#141,#142),#101,.T.);
#110=ADVANCED_FACE('',(#143,#144),#98,.T.);
#111=ADVANCED_FACE('',(#145,#146),#102,.T.);
#112=ADVANCED_FACE('',(#147,#148),#129,.F.);
#113=ADVANCED_FACE('',(#149,#150),#130,.F.);
#114=ADVANCED_FACE('',(#50),#99,.F.);
#115=ADVANCED_FACE('',(#51),#100,.F.);
#116=ADVANCED_FACE('',(#151,#152),#103,.F.);
#117=ADVANCED_FACE('',(#153,#154),#104,.F.);
#118=ADVANCED_FACE('',(#155,#156),#105,.T.);
#119=ADVANCED_FACE('',(#157,#158),#106,.T.);
#120=ADVANCED_FACE('',(#52),#131,.T.);
#121=ADVANCED_FACE('',(#53),#132,.T.);
#122=ADVANCED_FACE('',(#54),#133,.T.);
#123=ADVANCED_FACE('',(#55),#134,.T.);
#124=ADVANCED_FACE('',(#56),#135,.T.);
#125=ADVANCED_FACE('',(#57),#136,.T.);
#126=ADVANCED_FACE('',(#159),#33,.T.);
#127=PLANE('',#361);
#128=PLANE('',#364);
#129=PLANE('',#373);
#130=PLANE('',#377);
#131=PLANE('',#386);
#132=PLANE('',#387);
#133=PLANE('',#388);
#134=PLANE('',#389);
#135=PLANE('',#390);
#136=PLANE('',#391);
#137=FACE_BOUND('',#160,.T.);
#138=FACE_BOUND('',#161,.T.);
#139=FACE_BOUND('',#162,.T.);
#140=FACE_BOUND('',#163,.T.);
#141=FACE_BOUND('',#164,.T.);
#142=FACE_BOUND('',#165,.T.);
#143=FACE_BOUND('',#166,.T.);
#144=FACE_BOUND('',#167,.T.);
#145=FACE_BOUND('',#168,.T.);
#146=FACE_BOUND('',#169,.T.);
#147=FACE_BOUND('',#170,.T.);
#148=FACE_BOUND('',#171,.T.);
#149=FACE_BOUND('',#172,.T.);
#150=FACE_BOUND('',#173,.T.);
#151=FACE_BOUND('',#176,.T.);
#152=FACE_BOUND('',#177,.T.);
#153=FACE_BOUND('',#178,.T.);
#154=FACE_BOUND('',#179,.T.);
#155=FACE_BOUND('',#180,.T.);
#156=FACE_BOUND('',#181,.T.);
#157=FACE_BOUND('',#182,.T.);
#158=FACE_BOUND('',#183,.T.);
#159=FACE_BOUND('',#35,.T.);
#160=EDGE_LOOP('',(#190));
#161=EDGE_LOOP('',(#191));
#162=EDGE_LOOP('',(#192));
#163=EDGE_LOOP('',(#193));
#164=EDGE_LOOP('',(#194));
#165=EDGE_LOOP('',(#195));
#166=EDGE_LOOP('',(#196));
#167=EDGE_LOOP('',(#197));
#168=EDGE_LOOP('',(#198));
#169=EDGE_LOOP('',(#199));
#170=EDGE_LOOP('',(#200));
#171=EDGE_LOOP('',(#201,#202,#203,#204,#205,#206,#207,#208));
#172=EDGE_LOOP('',(#209));
#173=EDGE_LOOP('',(#210,#211,#212,#213,#214,#215,#216,#217));
#174=EDGE_LOOP('',(#218,#219,#220,#221));
#175=EDGE_LOOP('',(#222,#223,#224,#225));
#176=EDGE_LOOP('',(#226));
#177=EDGE_LOOP('',(#227));
#178=EDGE_LOOP('',(#228));
#179=EDGE_LOOP('',(#229));
#180=EDGE_LOOP('',(#230));
#181=EDGE_LOOP('',(#231));
#182=EDGE_LOOP('',(#232));
#183=EDGE_LOOP('',(#233));
#184=EDGE_LOOP('',(#234,#235,#236,#237));
#185=EDGE_LOOP('',(#238,#239,#240,#241));
#186=EDGE_LOOP('',(#242,#243,#244,#245));
#187=EDGE_LOOP('',(#246,#247,#248,#249));
#188=EDGE_LOOP('',(#250,#251,#252,#253));
#189=EDGE_LOOP('',(#254,#255,#256,#257));
#190=ORIENTED_EDGE('',*,*,#285,.T.);
#191=ORIENTED_EDGE('',*,*,#286,.T.);
#192=ORIENTED_EDGE('',*,*,#287,.T.);
#193=ORIENTED_EDGE('',*,*,#288,.T.);
#194=ORIENTED_EDGE('',*,*,#289,.F.);
#195=ORIENTED_EDGE('',*,*,#287,.F.);
#196=ORIENTED_EDGE('',*,*,#290,.T.);
#197=ORIENTED_EDGE('',*,*,#289,.T.);
#198=ORIENTED_EDGE('',*,*,#285,.F.);
#199=ORIENTED_EDGE('',*,*,#290,.F.);
#200=ORIENTED_EDGE('',*,*,#291,.T.);
#201=ORIENTED_EDGE('',*,*,#292,.F.);
#202=ORIENTED_EDGE('',*,*,#293,.F.);
#203=ORIENTED_EDGE('',*,*,#294,.F.);
#204=ORIENTED_EDGE('',*,*,#295,.F.);
#205=ORIENTED_EDGE('',*,*,#296,.F.);
#206=ORIENTED_EDGE('',*,*,#297,.F.);
#207=ORIENTED_EDGE('',*,*,#298,.F.);
#208=ORIENTED_EDGE('',*,*,#299,.F.);
#209=ORIENTED_EDGE('',*,*,#300,.T.);
#210=ORIENTED_EDGE('',*,*,#301,.F.);
#211=ORIENTED_EDGE('',*,*,#302,.T.);
#212=ORIENTED_EDGE('',*,*,#303,.F.);
#213=ORIENTED_EDGE('',*,*,#304,.F.);
#214=ORIENTED_EDGE('',*,*,#305,.F.);
#215=ORIENTED_EDGE('',*,*,#306,.F.);
#216=ORIENTED_EDGE('',*,*,#307,.F.);
#217=ORIENTED_EDGE('',*,*,#308,.F.);
#218=ORIENTED_EDGE('',*,*,#309,.F.);
#219=ORIENTED_EDGE('',*,*,#299,.T.);
#220=ORIENTED_EDGE('',*,*,#310,.F.);
#221=ORIENTED_EDGE('',*,*,#302,.F.);
#222=ORIENTED_EDGE('',*,*,#311,.F.);
#223=ORIENTED_EDGE('',*,*,#306,.T.);
#224=ORIENTED_EDGE('',*,*,#312,.F.);
#225=ORIENTED_EDGE('',*,*,#295,.T.);
#226=ORIENTED_EDGE('',*,*,#313,.T.);
#227=ORIENTED_EDGE('',*,*,#288,.F.);
#228=ORIENTED_EDGE('',*,*,#314,.T.);
#229=ORIENTED_EDGE('',*,*,#286,.F.);
#230=ORIENTED_EDGE('',*,*,#300,.F.);
#231=ORIENTED_EDGE('',*,*,#313,.F.);
#232=ORIENTED_EDGE('',*,*,#314,.F.);
#233=ORIENTED_EDGE('',*,*,#291,.F.);
#234=ORIENTED_EDGE('',*,*,#297,.T.);
#235=ORIENTED_EDGE('',*,*,#315,.T.);
#236=ORIENTED_EDGE('',*,*,#304,.T.);
#237=ORIENTED_EDGE('',*,*,#316,.F.);
#238=ORIENTED_EDGE('',*,*,#305,.T.);
#239=ORIENTED_EDGE('',*,*,#315,.F.);
#240=ORIENTED_EDGE('',*,*,#296,.T.);
#241=ORIENTED_EDGE('',*,*,#312,.T.);
#242=ORIENTED_EDGE('',*,*,#303,.T.);
#243=ORIENTED_EDGE('',*,*,#310,.T.);
#244=ORIENTED_EDGE('',*,*,#298,.T.);
#245=ORIENTED_EDGE('',*,*,#316,.T.);
#246=ORIENTED_EDGE('',*,*,#293,.T.);
#247=ORIENTED_EDGE('',*,*,#317,.T.);
#248=ORIENTED_EDGE('',*,*,#308,.T.);
#249=ORIENTED_EDGE('',*,*,#318,.F.);
#250=ORIENTED_EDGE('',*,*,#301,.T.);
#251=ORIENTED_EDGE('',*,*,#317,.F.);
#252=ORIENTED_EDGE('',*,*,#292,.T.);
#253=ORIENTED_EDGE('',*,*,#309,.T.);
#254=ORIENTED_EDGE('',*,*,#307,.T.);
#255=ORIENTED_EDGE('',*,*,#311,.T.);
#256=ORIENTED_EDGE('',*,*,#294,.T.);
#257=ORIENTED_EDGE('',*,*,#318,.T.);
#258=VERTEX_POINT('',#495);
#259=VERTEX_POINT('',#497);
#260=VERTEX_POINT('',#500);
#261=VERTEX_POINT('',#502);
#262=VERTEX_POINT('',#505);
#263=VERTEX_POINT('',#508);
#264=VERTEX_POINT('',#512);
#265=VERTEX_POINT('',#514);
#266=VERTEX_POINT('',#515);
#267=VERTEX_POINT('',#517);
#268=VERTEX_POINT('',#519);
#269=VERTEX_POINT('',#521);
#270=VERTEX_POINT('',#523);
#271=VERTEX_POINT('',#525);
#272=VERTEX_POINT('',#527);
#273=VERTEX_POINT('',#531);
#274=VERTEX_POINT('',#533);
#275=VERTEX_POINT('',#534);
#276=VERTEX_POINT('',#536);
#277=VERTEX_POINT('',#538);
#278=VERTEX_POINT('',#540);
#279=VERTEX_POINT('',#542);
#280=VERTEX_POINT('',#544);
#281=VERTEX_POINT('',#546);
#282=VERTEX_POINT('',#556);
#283=VERTEX_POINT('',#559);
#284=VERTEX_POINT('',#573);
#285=EDGE_CURVE('',#258,#258,#319,.T.);
#286=EDGE_CURVE('',#259,#259,#320,.T.);
#287=EDGE_CURVE('',#260,#260,#321,.T.);
#288=EDGE_CURVE('',#261,#261,#322,.T.);
#289=EDGE_CURVE('',#262,#262,#323,.T.);
#290=EDGE_CURVE('',#263,#263,#324,.T.);
#291=EDGE_CURVE('',#264,#264,#325,.T.);
#292=EDGE_CURVE('',#265,#266,#58,.T.);
#293=EDGE_CURVE('',#267,#265,#59,.T.);
#294=EDGE_CURVE('',#268,#267,#60,.T.);
#295=EDGE_CURVE('',#269,#268,#326,.T.);
#296=EDGE_CURVE('',#270,#269,#61,.T.);
#297=EDGE_CURVE('',#271,#270,#62,.T.);
#298=EDGE_CURVE('',#272,#271,#63,.T.);
#299=EDGE_CURVE('',#266,#272,#327,.T.);
#300=EDGE_CURVE('',#273,#273,#328,.T.);
#301=EDGE_CURVE('',#274,#275,#64,.T.);
#302=EDGE_CURVE('',#274,#276,#329,.T.);
#303=EDGE_CURVE('',#277,#276,#65,.T.);
#304=EDGE_CURVE('',#278,#277,#66,.T.);
#305=EDGE_CURVE('',#279,#278,#67,.T.);
#306=EDGE_CURVE('',#280,#279,#330,.T.);
#307=EDGE_CURVE('',#281,#280,#68,.T.);
#308=EDGE_CURVE('',#275,#281,#69,.T.);
#309=EDGE_CURVE('',#266,#274,#70,.T.);
#310=EDGE_CURVE('',#276,#272,#71,.T.);
#311=EDGE_CURVE('',#280,#268,#72,.T.);
#312=EDGE_CURVE('',#269,#279,#73,.T.);
#313=EDGE_CURVE('',#282,#282,#331,.T.);
#314=EDGE_CURVE('',#283,#283,#332,.T.);
#315=EDGE_CURVE('',#270,#278,#74,.T.);
#316=EDGE_CURVE('',#271,#277,#75,.T.);
#317=EDGE_CURVE('',#265,#275,#76,.T.);
#318=EDGE_CURVE('',#267,#281,#77,.T.);
#319=CIRCLE('',#359,56.9);
#320=CIRCLE('',#360,30.405);
#321=CIRCLE('',#362,56.9);
#322=CIRCLE('',#363,30.405);
#323=CIRCLE('',#365,60.9);
#324=CIRCLE('',#367,60.9);
#325=CIRCLE('',#370,27.5002624903444);
#326=CIRCLE('',#371,20.);
#327=CIRCLE('',#372,20.);
#328=CIRCLE('',#374,27.5002624903444);
#329=CIRCLE('',#375,20.);
#330=CIRCLE('',#376,20.);
#331=CIRCLE('',#380,28.4685083268963);
#332=CIRCLE('',#382,28.4685083268963);
#333=CIRCLE('',#392,8.);
#334=PRESENTATION_LAYER_ASSIGNMENT('2','Layer 2',(#356,#357,#358,#46));
#335=PRESENTATION_LAYER_ASSIGNMENT('3','Layer 3',(#47));
#336=STYLED_ITEM('',(#341),#356);
#337=STYLED_ITEM('',(#342),#357);
#338=STYLED_ITEM('',(#343),#358);
#339=STYLED_ITEM('',(#344),#46);
#340=STYLED_ITEM('',(#345),#47);
#341=PRESENTATION_STYLE_ASSIGNMENT((#346));
#342=PRESENTATION_STYLE_ASSIGNMENT((#347));
#343=PRESENTATION_STYLE_ASSIGNMENT((#348));
#344=PRESENTATION_STYLE_ASSIGNMENT((#36));
#345=PRESENTATION_STYLE_ASSIGNMENT((#37));
#346=CURVE_STYLE('',#352,POSITIVE_LENGTH_MEASURE(0.18),#349);
#347=CURVE_STYLE('',#353,POSITIVE_LENGTH_MEASURE(0.18),#349);
#348=CURVE_STYLE('',#354,POSITIVE_LENGTH_MEASURE(0.18),#349);
#349=COLOUR_RGB('Strong Stone',0.576470588235294,0.54508278019379,0.392156862745098);
#350=COLOUR_RGB('Medium Gray',0.490196078431373,0.490196078431373,0.490196078431373);
#351=COLOUR_RGB('Light Gray',0.8,0.8,0.8);
#352=DRAUGHTING_PRE_DEFINED_CURVE_FONT('continuous');
#353=DRAUGHTING_PRE_DEFINED_CURVE_FONT('continuous');
#354=DRAUGHTING_PRE_DEFINED_CURVE_FONT('continuous');
#355=AXIS2_PLACEMENT_3D('',#490,#393,#394);
#356=AXIS2_PLACEMENT_3D('PCS',#491,#395,#396);
#357=AXIS2_PLACEMENT_3D('MCS',#492,#397,#398);
#358=AXIS2_PLACEMENT_3D('CIP',#493,#399,#400);
#359=AXIS2_PLACEMENT_3D('',#494,#401,#402);
#360=AXIS2_PLACEMENT_3D('',#496,#403,#404);
#361=AXIS2_PLACEMENT_3D('',#498,#405,#406);
#362=AXIS2_PLACEMENT_3D('',#499,#407,#408);
#363=AXIS2_PLACEMENT_3D('',#501,#409,#410);
#364=AXIS2_PLACEMENT_3D('',#503,#411,#412);
#365=AXIS2_PLACEMENT_3D('',#504,#413,#414);
#366=AXIS2_PLACEMENT_3D('',#506,#415,#416);
#367=AXIS2_PLACEMENT_3D('',#507,#417,#418);
#368=AXIS2_PLACEMENT_3D('',#509,#419,#420);
#369=AXIS2_PLACEMENT_3D('',#510,#421,#422);
#370=AXIS2_PLACEMENT_3D('',#511,#423,#424);
#371=AXIS2_PLACEMENT_3D('',#520,#428,#429);
#372=AXIS2_PLACEMENT_3D('',#528,#433,#434);
#373=AXIS2_PLACEMENT_3D('',#529,#435,#436);
#374=AXIS2_PLACEMENT_3D('',#530,#437,#438);
#375=AXIS2_PLACEMENT_3D('',#535,#440,#441);
#376=AXIS2_PLACEMENT_3D('',#543,#445,#446);
#377=AXIS2_PLACEMENT_3D('',#548,#449,#450);
#378=AXIS2_PLACEMENT_3D('',#551,#453,#454);
#379=AXIS2_PLACEMENT_3D('',#554,#457,#458);
#380=AXIS2_PLACEMENT_3D('',#555,#459,#460);
#381=AXIS2_PLACEMENT_3D('',#557,#461,#462);
#382=AXIS2_PLACEMENT_3D('',#558,#463,#464);
#383=AXIS2_PLACEMENT_3D('',#560,#465,#466);
#384=AXIS2_PLACEMENT_3D('',#561,#467,#468);
#385=AXIS2_PLACEMENT_3D('',#562,#469,#470);
#386=AXIS2_PLACEMENT_3D('',#565,#473,#474);
#387=AXIS2_PLACEMENT_3D('',#566,#475,#476);
#388=AXIS2_PLACEMENT_3D('',#567,#477,#478);
#389=AXIS2_PLACEMENT_3D('',#570,#481,#482);
#390=AXIS2_PLACEMENT_3D('',#571,#483,#484);
#391=AXIS2_PLACEMENT_3D('',#572,#485,#486);
#392=AXIS2_PLACEMENT_3D('',#574,#487,#488);
#393=DIRECTION('',(0.,0.,1.));
#394=DIRECTION('',(1.,0.,0.));
#395=DIRECTION('',(0.,0.,1.));
#396=DIRECTION('',(1.,0.,0.));
#397=DIRECTION('',(0.,0.,1.));
#398=DIRECTION('',(1.,0.,0.));
#399=DIRECTION('',(0.,0.,1.));
#400=DIRECTION('',(1.,0.,0.));
#401=DIRECTION('',(0.,0.,1.));
#402=DIRECTION('',(-1.,0.,0.));
#403=DIRECTION('',(0.,0.,-1.));
#404=DIRECTION('',(-1.,0.,0.));
#405=DIRECTION('',(0.,0.,-1.));
#406=DIRECTION('',(-1.,0.,0.));
#407=DIRECTION('',(0.,0.,-1.));
#408=DIRECTION('',(1.,0.,0.));
#409=DIRECTION('',(0.,0.,1.));
#410=DIRECTION('',(1.,0.,0.));
#411=DIRECTION('',(0.,0.,1.));
#412=DIRECTION('',(1.,0.,0.));
#413=DIRECTION('',(0.,0.,1.));
#414=DIRECTION('',(1.,0.,0.));
#415=DIRECTION('',(0.,0.,1.));
#416=DIRECTION('',(1.,0.,0.));
#417=DIRECTION('',(0.,0.,-1.));
#418=DIRECTION('',(-1.,0.,0.));
#419=DIRECTION('',(0.,0.,1.));
#420=DIRECTION('',(1.,0.,0.));
#421=DIRECTION('',(0.,0.,-1.));
#422=DIRECTION('',(-1.,0.,0.));
#423=DIRECTION('',(0.,0.,1.));
#424=DIRECTION('',(-1.,0.,0.));
#425=DIRECTION('',(0.923879532511286,-0.382683432365092,0.));
#426=DIRECTION('',(-0.382683432365092,-0.923879532511286,0.));
#427=DIRECTION('',(-0.923879532511286,0.382683432365092,0.));
#428=DIRECTION('',(0.,0.,1.));
#429=DIRECTION('',(-1.,0.,0.));
#430=DIRECTION('',(-1.,7.35052320329155E-17,0.));
#431=DIRECTION('',(0.,1.,0.));
#432=DIRECTION('',(1.,7.35052320329155E-17,0.));
#433=DIRECTION('',(0.,0.,1.));
#434=DIRECTION('',(-1.,0.,0.));
#435=DIRECTION('',(0.,0.,-1.));
#436=DIRECTION('',(-1.,0.,0.));
#437=DIRECTION('',(0.,0.,-1.));
#438=DIRECTION('',(1.,0.,0.));
#439=DIRECTION('',(-0.923879532511286,0.382683432365092,0.));
#440=DIRECTION('',(0.,0.,1.));
#441=DIRECTION('',(1.,0.,0.));
#442=DIRECTION('',(-1.,-7.35052320329155E-17,0.));
#443=DIRECTION('',(0.,-1.,0.));
#444=DIRECTION('',(1.,-7.35052320329155E-17,0.));
#445=DIRECTION('',(0.,0.,-1.));
#446=DIRECTION('',(1.,0.,0.));
#447=DIRECTION('',(0.923879532511286,-0.382683432365092,0.));
#448=DIRECTION('',(0.382683432365092,0.923879532511286,0.));
#449=DIRECTION('',(0.,0.,1.));
#450=DIRECTION('',(1.,0.,0.));
#451=DIRECTION('',(0.,0.,-1.));
#452=DIRECTION('',(0.,0.,1.));
#453=DIRECTION('',(0.,0.,-1.));
#454=DIRECTION('',(0.,1.,0.));
#455=DIRECTION('',(0.,0.,1.));
#456=DIRECTION('',(0.,0.,-1.));
#457=DIRECTION('',(0.,0.,-1.));
#458=DIRECTION('',(0.,1.,0.));
#459=DIRECTION('',(0.,0.,1.));
#460=DIRECTION('',(-1.,0.,0.));
#461=DIRECTION('',(0.,0.,1.));
#462=DIRECTION('',(1.,0.,0.));
#463=DIRECTION('',(0.,0.,-1.));
#464=DIRECTION('',(1.,0.,0.));
#465=DIRECTION('',(0.,0.,-1.));
#466=DIRECTION('',(-1.,0.,0.));
#467=DIRECTION('',(0.,0.,-1.));
#468=DIRECTION('',(-1.,0.,0.));
#469=DIRECTION('',(0.,0.,1.));
#470=DIRECTION('',(1.,0.,0.));
#471=DIRECTION('',(0.,0.,-1.));
#472=DIRECTION('',(0.,0.,-1.));
#473=DIRECTION('',(-1.,0.,0.));
#474=DIRECTION('',(0.,0.,-1.));
#475=DIRECTION('',(-7.35052320329155E-17,-1.,0.));
#476=DIRECTION('',(1.,-7.37257477290143E-17,0.));
#477=DIRECTION('',(-7.35052320329155E-17,1.,0.));
#478=DIRECTION('',(-1.,-7.37257477290143E-17,0.));
#479=DIRECTION('',(0.,0.,-1.));
#480=DIRECTION('',(0.,0.,-1.));
#481=DIRECTION('',(0.923879532511286,-0.382683432365092,0.));
#482=DIRECTION('',(0.,0.,-1.));
#483=DIRECTION('',(0.382683432365092,0.923879532511286,0.));
#484=DIRECTION('',(-0.923879532511286,0.382683432365092,0.));
#485=DIRECTION('',(-0.382683432365092,-0.923879532511286,0.));
#486=DIRECTION('',(0.923879532511286,-0.382683432365092,0.));
#487=DIRECTION('',(0.991196213192891,-0.121703591805514,0.05213734452109));
#488=DIRECTION('',(0.120858405284923,0.99248637873224,0.0190796725063683));
#489=DIRECTION('',(0.,0.,-1.));
#490=CARTESIAN_POINT('',(0.,0.,0.));
#491=CARTESIAN_POINT('',(0.,0.,0.));
#492=CARTESIAN_POINT('',(0.,0.,0.));
#493=CARTESIAN_POINT('',(0.,0.,-16.5));
#494=CARTESIAN_POINT('',(0.,0.,-2.25000000000006));
#495=CARTESIAN_POINT('',(-56.9,0.,-2.25000000000006));
#496=CARTESIAN_POINT('',(0.,0.,-2.25000000000006));
#497=CARTESIAN_POINT('',(-30.405,0.,-2.25000000000006));
#498=CARTESIAN_POINT('',(60.9,0.,-2.25000000000006));
#499=CARTESIAN_POINT('',(0.,0.,-14.7499999999999));
#500=CARTESIAN_POINT('',(56.9,0.,-14.7499999999999));
#501=CARTESIAN_POINT('',(0.,0.,-14.7499999999999));
#502=CARTESIAN_POINT('',(30.405,0.,-14.7499999999999));
#503=CARTESIAN_POINT('',(28.405,0.,-14.7499999999999));
#504=CARTESIAN_POINT('',(0.,0.,-10.7499999999999));
#505=CARTESIAN_POINT('',(60.9,0.,-10.7499999999999));
#506=CARTESIAN_POINT('',(0.,0.,-10.7499999999999));
#507=CARTESIAN_POINT('',(0.,0.,-6.25000000000006));
#508=CARTESIAN_POINT('',(-60.9,0.,-6.25000000000006));
#509=CARTESIAN_POINT('',(0.,0.,-8.5));
#510=CARTESIAN_POINT('',(0.,0.,-6.25000000000006));
#511=CARTESIAN_POINT('',(0.,0.,0.));
#512=CARTESIAN_POINT('',(-27.5002624903444,0.,0.));
#513=CARTESIAN_POINT('',(22.3317668979764,-14.6620817223584,0.));
#514=CARTESIAN_POINT('',(-23.7169741290918,4.41193134125975,0.));
#515=CARTESIAN_POINT('',(-19.804267378416,2.79123513954105,0.));
#516=CARTESIAN_POINT('',(-17.6437410270682,19.0740130636182,0.));
#517=CARTESIAN_POINT('',(-19.8901398054409,13.6507266663726,0.));
#518=CARTESIAN_POINT('',(26.1586012216274,-5.42328639724556,0.));
#519=CARTESIAN_POINT('',(-15.9774330547651,12.0300304646539,0.));
#520=CARTESIAN_POINT('',(0.,0.,0.));
#521=CARTESIAN_POINT('',(19.3649167310371,5.,0.));
#522=CARTESIAN_POINT('',(28.405,5.,0.));
#523=CARTESIAN_POINT('',(23.6,5.,0.));
#524=CARTESIAN_POINT('',(23.6,0.,0.));
#525=CARTESIAN_POINT('',(23.6,-5.,0.));
#526=CARTESIAN_POINT('',(28.405,-5.,0.));
#527=CARTESIAN_POINT('',(19.3649167310371,-5.,0.));
#528=CARTESIAN_POINT('',(0.,0.,0.));
#529=CARTESIAN_POINT('',(28.405,0.,0.));
#530=CARTESIAN_POINT('',(0.,0.,-17.));
#531=CARTESIAN_POINT('',(27.5002624903444,0.,-17.));
#532=CARTESIAN_POINT('',(-1.91341716182546,-4.61939766255643,-17.));
#533=CARTESIAN_POINT('',(-19.804267378416,2.79123513954104,-17.));
#534=CARTESIAN_POINT('',(-23.7169741290918,4.41193134125975,-17.));
#535=CARTESIAN_POINT('',(0.,0.,-17.));
#536=CARTESIAN_POINT('',(19.3649167310371,-5.,-17.));
#537=CARTESIAN_POINT('',(3.67526160164578E-16,-5.,-17.));
#538=CARTESIAN_POINT('',(23.6,-5.,-17.));
#539=CARTESIAN_POINT('',(23.6,0.,-17.));
#540=CARTESIAN_POINT('',(23.6,5.,-17.));
#541=CARTESIAN_POINT('',(3.67526160164578E-16,5.,-17.));
#542=CARTESIAN_POINT('',(19.3649167310371,5.,-17.));
#543=CARTESIAN_POINT('',(0.,0.,-17.));
#544=CARTESIAN_POINT('',(-15.9774330547651,12.0300304646539,-17.));
#545=CARTESIAN_POINT('',(1.91341716182546,4.61939766255643,-17.));
#546=CARTESIAN_POINT('',(-19.8901398054409,13.6507266663726,-17.));
#547=CARTESIAN_POINT('',(-21.8035569672663,9.03132900381617,-17.));
#548=CARTESIAN_POINT('',(0.,0.,-17.));
#549=CARTESIAN_POINT('',(-19.804267378416,2.79123513954104,11.5));
#550=CARTESIAN_POINT('',(19.3649167310371,-5.,11.5));
#551=CARTESIAN_POINT('',(0.,0.,11.5));
#552=CARTESIAN_POINT('',(-15.9774330547651,12.0300304646539,11.5));
#553=CARTESIAN_POINT('',(19.3649167310371,5.,11.5));
#554=CARTESIAN_POINT('',(0.,0.,11.5));
#555=CARTESIAN_POINT('',(0.,0.,-16.25));
#556=CARTESIAN_POINT('',(-28.4685083268963,0.,-16.25));
#557=CARTESIAN_POINT('',(0.,0.,-16.7499999999999));
#558=CARTESIAN_POINT('',(0.,0.,-0.75000000000001));
#559=CARTESIAN_POINT('',(28.4685083268963,0.,-0.75000000000001));
#560=CARTESIAN_POINT('',(0.,0.,-0.250000000000061));
#561=CARTESIAN_POINT('',(0.,0.,-16.));
#562=CARTESIAN_POINT('',(0.,0.,-1.));
#563=CARTESIAN_POINT('',(23.6,5.,11.5));
#564=CARTESIAN_POINT('',(23.6,-5.,11.5));
#565=CARTESIAN_POINT('',(23.6,-5.,11.5));
#566=CARTESIAN_POINT('',(23.6,5.,11.5));
#567=CARTESIAN_POINT('',(-3.5527136788005E-15,-5.,11.5));
#568=CARTESIAN_POINT('',(-23.7169741290918,4.41193134125975,11.5));
#569=CARTESIAN_POINT('',(-19.8901398054409,13.6507266663726,11.5));
#570=CARTESIAN_POINT('',(-19.8901398054409,13.6507266663726,11.5));
#571=CARTESIAN_POINT('',(-23.7169741290918,4.41193134125974,11.5));
#572=CARTESIAN_POINT('',(1.91341716182546,4.61939766255643,11.5));
#573=CARTESIAN_POINT('',(-13.3682105500776,-47.2417842469733,-8.3214612826204));
#574=CARTESIAN_POINT('',(-14.335077792357,-55.1816752768312,-8.47409866267135));
#575=CARTESIAN_POINT('',(0.,0.,0.));
#576=MECHANICAL_DESIGN_GEOMETRIC_PRESENTATION_REPRESENTATION('',(#336,#337,
#338,#339,#340),#577);
#577=(
GEOMETRIC_REPRESENTATION_CONTEXT(3)
GLOBAL_UNCERTAINTY_ASSIGNED_CONTEXT((#578))
GLOBAL_UNIT_ASSIGNED_CONTEXT((#584,#580,#579))
REPRESENTATION_CONTEXT('335.25-125.1317','TOP_LEVEL_ASSEMBLY_PART')
);
#578=UNCERTAINTY_MEASURE_WITH_UNIT(LENGTH_MEASURE(2.E-5),#584,
'DISTANCE_ACCURACY_VALUE','Maximum Tolerance applied to model');
#579=(
NAMED_UNIT(*)
SI_UNIT($,.STERADIAN.)
SOLID_ANGLE_UNIT()
);
#580=(
CONVERSION_BASED_UNIT('DEGREE',#582)
NAMED_UNIT(#581)
PLANE_ANGLE_UNIT()
);
#581=DIMENSIONAL_EXPONENTS(0.,0.,0.,0.,0.,0.,0.);
#582=PLANE_ANGLE_MEASURE_WITH_UNIT(PLANE_ANGLE_MEASURE(0.0174532925),#583);
#583=(
NAMED_UNIT(*)
PLANE_ANGLE_UNIT()
SI_UNIT($,.RADIAN.)
);
#584=(
LENGTH_UNIT()
NAMED_UNIT(*)
SI_UNIT(.MILLI.,.METRE.)
);
ENDSEC;
END-ISO-10303-21;
