ISO-10303-21;
HEADER;
/* Generated by software containing ST-Developer
 * from STEP Tools, Inc. (www.steptools.com) 
 */
/* OPTION: using custom schema-name function */

FILE_DESCRIPTION(
/* description */ (''),
/* implementation_level */ '2;1');

FILE_NAME(
/* name */ '335.25-12.00-XL1113R-R10.stp',
/* time_stamp */ '2020-03-03T09:31:47+05:00',
/* author */ (''),
/* organization */ (''),
/* preprocessor_version */ 'ST-DEVELOPER v16.7',
/* originating_system */ 'SIEMENS PLM Software NX 12.0',
/* authorisation */ '');

FILE_SCHEMA (('AUTOMOTIVE_DESIGN { 1 0 10303 214 3 1 1 1 }'));
ENDSEC;

DATA;
#10=CONSTRUCTIVE_GEOMETRY_REPRESENTATION_RELATIONSHIP(
'supplemental geometry','',#32,#11);
#11=CONSTRUCTIVE_GEOMETRY_REPRESENTATION('supplemental geometry',(#445,
#446,#447),#738);
#12=PROPERTY_DEFINITION_REPRESENTATION(#16,#14);
#13=PROPERTY_DEFINITION_REPRESENTATION(#17,#15);
#14=REPRESENTATION('',(#18),#738);
#15=REPRESENTATION('',(#19),#738);
#16=PROPERTY_DEFINITION('pmi validation property','',#23);
#17=PROPERTY_DEFINITION('pmi validation property','',#23);
#18=VALUE_REPRESENTATION_ITEM('number of annotations',COUNT_MEASURE(0.));
#19=VALUE_REPRESENTATION_ITEM('number of views',COUNT_MEASURE(0.));
#20=SHAPE_REPRESENTATION_RELATIONSHIP('None',
'relationship between 335.25-12.00-XL1113R-R10-None and 335.25-12.00-X
L1113R-R10-None',#32,#21);
#21=ADVANCED_BREP_SHAPE_REPRESENTATION('335.25-12.00-XL1113R-R10-None',
(#46,#47),#738);
#22=SHAPE_DEFINITION_REPRESENTATION(#23,#32);
#23=PRODUCT_DEFINITION_SHAPE('','',#24);
#24=PRODUCT_DEFINITION(' ','',#26,#25);
#25=PRODUCT_DEFINITION_CONTEXT('part definition',#31,'design');
#26=PRODUCT_DEFINITION_FORMATION_WITH_SPECIFIED_SOURCE(' ',' ',#28,
 .NOT_KNOWN.);
#27=PRODUCT_RELATED_PRODUCT_CATEGORY('part','',(#28));
#28=PRODUCT('inpu14587469z3iv','inpu14587469z3iv',' ',(#29));
#29=PRODUCT_CONTEXT(' ',#31,'mechanical');
#30=APPLICATION_PROTOCOL_DEFINITION('international standard',
'automotive_design',2010,#31);
#31=APPLICATION_CONTEXT(
'core data for automotive mechanical design processes');
#32=SHAPE_REPRESENTATION('335.25-12.00-XL1113R-R10-None',(#444),#738);
#33=SURFACE_OF_REVOLUTION('',#421,#34);
#34=AXIS1_PLACEMENT('',#736,#626);
#35=VERTEX_LOOP('',#356);
#36=SURFACE_STYLE_USAGE(.BOTH.,#38);
#37=SURFACE_STYLE_USAGE(.BOTH.,#39);
#38=SURFACE_SIDE_STYLE('',(#40));
#39=SURFACE_SIDE_STYLE('',(#41));
#40=SURFACE_STYLE_FILL_AREA(#42);
#41=SURFACE_STYLE_FILL_AREA(#43);
#42=FILL_AREA_STYLE('',(#44));
#43=FILL_AREA_STYLE('',(#45));
#44=FILL_AREA_STYLE_COLOUR('',#439);
#45=FILL_AREA_STYLE_COLOUR('',#440);
#46=MANIFOLD_SOLID_BREP('NOCUT',#48);
#47=MANIFOLD_SOLID_BREP('CUT',#49);
#48=CLOSED_SHELL('',(#120,#121,#122,#123,#124,#125,#126,#127,#128,#129,
#130,#131,#132,#133,#134,#135,#136,#137,#138,#139,#140,#141,#142,#143,#144,
#145,#146));
#49=CLOSED_SHELL('',(#147));
#50=CONICAL_SURFACE('',#470,117.4,75.);
#51=CONICAL_SURFACE('',#480,117.4,75.);
#52=FACE_OUTER_BOUND('',#206,.T.);
#53=FACE_OUTER_BOUND('',#207,.T.);
#54=FACE_OUTER_BOUND('',#232,.T.);
#55=FACE_OUTER_BOUND('',#233,.T.);
#56=FACE_OUTER_BOUND('',#234,.T.);
#57=FACE_OUTER_BOUND('',#235,.T.);
#58=FACE_OUTER_BOUND('',#236,.T.);
#59=FACE_OUTER_BOUND('',#237,.T.);
#60=LINE('',#650,#80);
#61=LINE('',#653,#81);
#62=LINE('',#655,#82);
#63=LINE('',#659,#83);
#64=LINE('',#661,#84);
#65=LINE('',#663,#85);
#66=LINE('',#669,#86);
#67=LINE('',#674,#87);
#68=LINE('',#676,#88);
#69=LINE('',#678,#89);
#70=LINE('',#682,#90);
#71=LINE('',#684,#91);
#72=LINE('',#686,#92);
#73=LINE('',#687,#93);
#74=LINE('',#689,#94);
#75=LINE('',#690,#95);
#76=LINE('',#724,#96);
#77=LINE('',#725,#97);
#78=LINE('',#729,#98);
#79=LINE('',#730,#99);
#80=VECTOR('',#530,1.);
#81=VECTOR('',#531,1.);
#82=VECTOR('',#532,1.);
#83=VECTOR('',#535,1.);
#84=VECTOR('',#536,1.);
#85=VECTOR('',#537,1.);
#86=VECTOR('',#544,1.);
#87=VECTOR('',#547,1.);
#88=VECTOR('',#548,1.);
#89=VECTOR('',#549,1.);
#90=VECTOR('',#552,1.);
#91=VECTOR('',#553,1.);
#92=VECTOR('',#556,1.);
#93=VECTOR('',#557,1.);
#94=VECTOR('',#560,1.);
#95=VECTOR('',#561,1.);
#96=VECTOR('',#608,1.);
#97=VECTOR('',#609,1.);
#98=VECTOR('',#616,1.);
#99=VECTOR('',#617,1.);
#100=TOROIDAL_SURFACE('',#457,144.85,4.);
#101=TOROIDAL_SURFACE('',#458,144.85,4.);
#102=TOROIDAL_SURFACE('',#474,116.734870380795,0.8);
#103=TOROIDAL_SURFACE('',#478,41.1,2.);
#104=TOROIDAL_SURFACE('',#484,116.734870380795,0.8);
#105=TOROIDAL_SURFACE('',#488,41.1,2.);
#106=TOROIDAL_SURFACE('',#489,38.1,1.);
#107=TOROIDAL_SURFACE('',#490,38.1,1.);
#108=PLANE('',#453);
#109=PLANE('',#456);
#110=PLANE('',#462);
#111=PLANE('',#466);
#112=PLANE('',#473);
#113=PLANE('',#483);
#114=PLANE('',#491);
#115=PLANE('',#492);
#116=PLANE('',#493);
#117=PLANE('',#494);
#118=PLANE('',#495);
#119=PLANE('',#496);
#120=ADVANCED_FACE('',(#153,#154),#148,.T.);
#121=ADVANCED_FACE('',(#155,#156),#108,.F.);
#122=ADVANCED_FACE('',(#157,#158),#109,.F.);
#123=ADVANCED_FACE('',(#159,#160),#100,.T.);
#124=ADVANCED_FACE('',(#161,#162),#101,.T.);
#125=ADVANCED_FACE('',(#163,#164),#110,.F.);
#126=ADVANCED_FACE('',(#165,#166),#111,.F.);
#127=ADVANCED_FACE('',(#52),#149,.F.);
#128=ADVANCED_FACE('',(#53),#150,.F.);
#129=ADVANCED_FACE('',(#167,#168),#50,.F.);
#130=ADVANCED_FACE('',(#169,#170),#112,.T.);
#131=ADVANCED_FACE('',(#171,#172),#102,.F.);
#132=ADVANCED_FACE('',(#173,#174),#151,.T.);
#133=ADVANCED_FACE('',(#175,#176),#103,.F.);
#134=ADVANCED_FACE('',(#177,#178),#51,.F.);
#135=ADVANCED_FACE('',(#179,#180),#113,.T.);
#136=ADVANCED_FACE('',(#181,#182),#104,.F.);
#137=ADVANCED_FACE('',(#183,#184),#152,.T.);
#138=ADVANCED_FACE('',(#185,#186),#105,.F.);
#139=ADVANCED_FACE('',(#187,#188),#106,.T.);
#140=ADVANCED_FACE('',(#189,#190),#107,.T.);
#141=ADVANCED_FACE('',(#54),#114,.T.);
#142=ADVANCED_FACE('',(#55),#115,.T.);
#143=ADVANCED_FACE('',(#56),#116,.T.);
#144=ADVANCED_FACE('',(#57),#117,.T.);
#145=ADVANCED_FACE('',(#58),#118,.T.);
#146=ADVANCED_FACE('',(#59),#119,.T.);
#147=ADVANCED_FACE('',(#191),#33,.T.);
#148=CYLINDRICAL_SURFACE('',#450,148.85);
#149=CYLINDRICAL_SURFACE('',#467,25.4);
#150=CYLINDRICAL_SURFACE('',#468,25.4);
#151=CYLINDRICAL_SURFACE('',#477,39.1);
#152=CYLINDRICAL_SURFACE('',#487,39.1);
#153=FACE_BOUND('',#192,.T.);
#154=FACE_BOUND('',#193,.T.);
#155=FACE_BOUND('',#194,.T.);
#156=FACE_BOUND('',#195,.T.);
#157=FACE_BOUND('',#196,.T.);
#158=FACE_BOUND('',#197,.T.);
#159=FACE_BOUND('',#198,.T.);
#160=FACE_BOUND('',#199,.T.);
#161=FACE_BOUND('',#200,.T.);
#162=FACE_BOUND('',#201,.T.);
#163=FACE_BOUND('',#202,.T.);
#164=FACE_BOUND('',#203,.T.);
#165=FACE_BOUND('',#204,.T.);
#166=FACE_BOUND('',#205,.T.);
#167=FACE_BOUND('',#208,.T.);
#168=FACE_BOUND('',#209,.T.);
#169=FACE_BOUND('',#210,.T.);
#170=FACE_BOUND('',#211,.T.);
#171=FACE_BOUND('',#212,.T.);
#172=FACE_BOUND('',#213,.T.);
#173=FACE_BOUND('',#214,.T.);
#174=FACE_BOUND('',#215,.T.);
#175=FACE_BOUND('',#216,.T.);
#176=FACE_BOUND('',#217,.T.);
#177=FACE_BOUND('',#218,.T.);
#178=FACE_BOUND('',#219,.T.);
#179=FACE_BOUND('',#220,.T.);
#180=FACE_BOUND('',#221,.T.);
#181=FACE_BOUND('',#222,.T.);
#182=FACE_BOUND('',#223,.T.);
#183=FACE_BOUND('',#224,.T.);
#184=FACE_BOUND('',#225,.T.);
#185=FACE_BOUND('',#226,.T.);
#186=FACE_BOUND('',#227,.T.);
#187=FACE_BOUND('',#228,.T.);
#188=FACE_BOUND('',#229,.T.);
#189=FACE_BOUND('',#230,.T.);
#190=FACE_BOUND('',#231,.T.);
#191=FACE_BOUND('',#35,.T.);
#192=EDGE_LOOP('',(#238));
#193=EDGE_LOOP('',(#239));
#194=EDGE_LOOP('',(#240));
#195=EDGE_LOOP('',(#241));
#196=EDGE_LOOP('',(#242));
#197=EDGE_LOOP('',(#243));
#198=EDGE_LOOP('',(#244));
#199=EDGE_LOOP('',(#245));
#200=EDGE_LOOP('',(#246));
#201=EDGE_LOOP('',(#247));
#202=EDGE_LOOP('',(#248));
#203=EDGE_LOOP('',(#249,#250,#251,#252,#253,#254,#255,#256));
#204=EDGE_LOOP('',(#257));
#205=EDGE_LOOP('',(#258,#259,#260,#261,#262,#263,#264,#265));
#206=EDGE_LOOP('',(#266,#267,#268,#269));
#207=EDGE_LOOP('',(#270,#271,#272,#273));
#208=EDGE_LOOP('',(#274));
#209=EDGE_LOOP('',(#275));
#210=EDGE_LOOP('',(#276));
#211=EDGE_LOOP('',(#277));
#212=EDGE_LOOP('',(#278));
#213=EDGE_LOOP('',(#279));
#214=EDGE_LOOP('',(#280));
#215=EDGE_LOOP('',(#281));
#216=EDGE_LOOP('',(#282));
#217=EDGE_LOOP('',(#283));
#218=EDGE_LOOP('',(#284));
#219=EDGE_LOOP('',(#285));
#220=EDGE_LOOP('',(#286));
#221=EDGE_LOOP('',(#287));
#222=EDGE_LOOP('',(#288));
#223=EDGE_LOOP('',(#289));
#224=EDGE_LOOP('',(#290));
#225=EDGE_LOOP('',(#291));
#226=EDGE_LOOP('',(#292));
#227=EDGE_LOOP('',(#293));
#228=EDGE_LOOP('',(#294));
#229=EDGE_LOOP('',(#295));
#230=EDGE_LOOP('',(#296));
#231=EDGE_LOOP('',(#297));
#232=EDGE_LOOP('',(#298,#299,#300,#301));
#233=EDGE_LOOP('',(#302,#303,#304,#305));
#234=EDGE_LOOP('',(#306,#307,#308,#309));
#235=EDGE_LOOP('',(#310,#311,#312,#313));
#236=EDGE_LOOP('',(#314,#315,#316,#317));
#237=EDGE_LOOP('',(#318,#319,#320,#321));
#238=ORIENTED_EDGE('',*,*,#357,.T.);
#239=ORIENTED_EDGE('',*,*,#358,.T.);
#240=ORIENTED_EDGE('',*,*,#359,.T.);
#241=ORIENTED_EDGE('',*,*,#360,.F.);
#242=ORIENTED_EDGE('',*,*,#361,.T.);
#243=ORIENTED_EDGE('',*,*,#362,.F.);
#244=ORIENTED_EDGE('',*,*,#358,.F.);
#245=ORIENTED_EDGE('',*,*,#359,.F.);
#246=ORIENTED_EDGE('',*,*,#361,.F.);
#247=ORIENTED_EDGE('',*,*,#357,.F.);
#248=ORIENTED_EDGE('',*,*,#363,.T.);
#249=ORIENTED_EDGE('',*,*,#364,.F.);
#250=ORIENTED_EDGE('',*,*,#365,.F.);
#251=ORIENTED_EDGE('',*,*,#366,.F.);
#252=ORIENTED_EDGE('',*,*,#367,.T.);
#253=ORIENTED_EDGE('',*,*,#368,.F.);
#254=ORIENTED_EDGE('',*,*,#369,.F.);
#255=ORIENTED_EDGE('',*,*,#370,.F.);
#256=ORIENTED_EDGE('',*,*,#371,.T.);
#257=ORIENTED_EDGE('',*,*,#372,.T.);
#258=ORIENTED_EDGE('',*,*,#373,.F.);
#259=ORIENTED_EDGE('',*,*,#374,.T.);
#260=ORIENTED_EDGE('',*,*,#375,.F.);
#261=ORIENTED_EDGE('',*,*,#376,.F.);
#262=ORIENTED_EDGE('',*,*,#377,.F.);
#263=ORIENTED_EDGE('',*,*,#378,.T.);
#264=ORIENTED_EDGE('',*,*,#379,.F.);
#265=ORIENTED_EDGE('',*,*,#380,.F.);
#266=ORIENTED_EDGE('',*,*,#381,.F.);
#267=ORIENTED_EDGE('',*,*,#371,.F.);
#268=ORIENTED_EDGE('',*,*,#382,.F.);
#269=ORIENTED_EDGE('',*,*,#374,.F.);
#270=ORIENTED_EDGE('',*,*,#383,.F.);
#271=ORIENTED_EDGE('',*,*,#378,.F.);
#272=ORIENTED_EDGE('',*,*,#384,.F.);
#273=ORIENTED_EDGE('',*,*,#367,.F.);
#274=ORIENTED_EDGE('',*,*,#385,.T.);
#275=ORIENTED_EDGE('',*,*,#362,.T.);
#276=ORIENTED_EDGE('',*,*,#386,.T.);
#277=ORIENTED_EDGE('',*,*,#387,.T.);
#278=ORIENTED_EDGE('',*,*,#385,.F.);
#279=ORIENTED_EDGE('',*,*,#387,.F.);
#280=ORIENTED_EDGE('',*,*,#388,.T.);
#281=ORIENTED_EDGE('',*,*,#389,.T.);
#282=ORIENTED_EDGE('',*,*,#389,.F.);
#283=ORIENTED_EDGE('',*,*,#386,.F.);
#284=ORIENTED_EDGE('',*,*,#390,.T.);
#285=ORIENTED_EDGE('',*,*,#360,.T.);
#286=ORIENTED_EDGE('',*,*,#391,.T.);
#287=ORIENTED_EDGE('',*,*,#392,.T.);
#288=ORIENTED_EDGE('',*,*,#390,.F.);
#289=ORIENTED_EDGE('',*,*,#392,.F.);
#290=ORIENTED_EDGE('',*,*,#393,.T.);
#291=ORIENTED_EDGE('',*,*,#394,.T.);
#292=ORIENTED_EDGE('',*,*,#394,.F.);
#293=ORIENTED_EDGE('',*,*,#391,.F.);
#294=ORIENTED_EDGE('',*,*,#372,.F.);
#295=ORIENTED_EDGE('',*,*,#393,.F.);
#296=ORIENTED_EDGE('',*,*,#388,.F.);
#297=ORIENTED_EDGE('',*,*,#363,.F.);
#298=ORIENTED_EDGE('',*,*,#369,.T.);
#299=ORIENTED_EDGE('',*,*,#395,.T.);
#300=ORIENTED_EDGE('',*,*,#376,.T.);
#301=ORIENTED_EDGE('',*,*,#396,.F.);
#302=ORIENTED_EDGE('',*,*,#377,.T.);
#303=ORIENTED_EDGE('',*,*,#395,.F.);
#304=ORIENTED_EDGE('',*,*,#368,.T.);
#305=ORIENTED_EDGE('',*,*,#384,.T.);
#306=ORIENTED_EDGE('',*,*,#375,.T.);
#307=ORIENTED_EDGE('',*,*,#382,.T.);
#308=ORIENTED_EDGE('',*,*,#370,.T.);
#309=ORIENTED_EDGE('',*,*,#396,.T.);
#310=ORIENTED_EDGE('',*,*,#365,.T.);
#311=ORIENTED_EDGE('',*,*,#397,.T.);
#312=ORIENTED_EDGE('',*,*,#380,.T.);
#313=ORIENTED_EDGE('',*,*,#398,.F.);
#314=ORIENTED_EDGE('',*,*,#373,.T.);
#315=ORIENTED_EDGE('',*,*,#397,.F.);
#316=ORIENTED_EDGE('',*,*,#364,.T.);
#317=ORIENTED_EDGE('',*,*,#381,.T.);
#318=ORIENTED_EDGE('',*,*,#379,.T.);
#319=ORIENTED_EDGE('',*,*,#383,.T.);
#320=ORIENTED_EDGE('',*,*,#366,.T.);
#321=ORIENTED_EDGE('',*,*,#398,.T.);
#322=VERTEX_POINT('',#632);
#323=VERTEX_POINT('',#634);
#324=VERTEX_POINT('',#637);
#325=VERTEX_POINT('',#639);
#326=VERTEX_POINT('',#642);
#327=VERTEX_POINT('',#644);
#328=VERTEX_POINT('',#649);
#329=VERTEX_POINT('',#651);
#330=VERTEX_POINT('',#652);
#331=VERTEX_POINT('',#654);
#332=VERTEX_POINT('',#656);
#333=VERTEX_POINT('',#658);
#334=VERTEX_POINT('',#660);
#335=VERTEX_POINT('',#662);
#336=VERTEX_POINT('',#664);
#337=VERTEX_POINT('',#668);
#338=VERTEX_POINT('',#670);
#339=VERTEX_POINT('',#671);
#340=VERTEX_POINT('',#673);
#341=VERTEX_POINT('',#675);
#342=VERTEX_POINT('',#677);
#343=VERTEX_POINT('',#679);
#344=VERTEX_POINT('',#681);
#345=VERTEX_POINT('',#683);
#346=VERTEX_POINT('',#693);
#347=VERTEX_POINT('',#696);
#348=VERTEX_POINT('',#698);
#349=VERTEX_POINT('',#702);
#350=VERTEX_POINT('',#704);
#351=VERTEX_POINT('',#708);
#352=VERTEX_POINT('',#711);
#353=VERTEX_POINT('',#713);
#354=VERTEX_POINT('',#717);
#355=VERTEX_POINT('',#719);
#356=VERTEX_POINT('',#734);
#357=EDGE_CURVE('',#322,#322,#399,.T.);
#358=EDGE_CURVE('',#323,#323,#400,.T.);
#359=EDGE_CURVE('',#324,#324,#401,.T.);
#360=EDGE_CURVE('',#325,#325,#402,.T.);
#361=EDGE_CURVE('',#326,#326,#403,.T.);
#362=EDGE_CURVE('',#327,#327,#404,.T.);
#363=EDGE_CURVE('',#328,#328,#405,.T.);
#364=EDGE_CURVE('',#329,#330,#60,.T.);
#365=EDGE_CURVE('',#331,#329,#61,.T.);
#366=EDGE_CURVE('',#332,#331,#62,.T.);
#367=EDGE_CURVE('',#332,#333,#406,.T.);
#368=EDGE_CURVE('',#334,#333,#63,.T.);
#369=EDGE_CURVE('',#335,#334,#64,.T.);
#370=EDGE_CURVE('',#336,#335,#65,.T.);
#371=EDGE_CURVE('',#336,#330,#407,.T.);
#372=EDGE_CURVE('',#337,#337,#408,.T.);
#373=EDGE_CURVE('',#338,#339,#66,.T.);
#374=EDGE_CURVE('',#338,#340,#409,.T.);
#375=EDGE_CURVE('',#341,#340,#67,.T.);
#376=EDGE_CURVE('',#342,#341,#68,.T.);
#377=EDGE_CURVE('',#343,#342,#69,.T.);
#378=EDGE_CURVE('',#343,#344,#410,.T.);
#379=EDGE_CURVE('',#345,#344,#70,.T.);
#380=EDGE_CURVE('',#339,#345,#71,.T.);
#381=EDGE_CURVE('',#330,#338,#72,.T.);
#382=EDGE_CURVE('',#340,#336,#73,.T.);
#383=EDGE_CURVE('',#344,#332,#74,.T.);
#384=EDGE_CURVE('',#333,#343,#75,.T.);
#385=EDGE_CURVE('',#346,#346,#411,.T.);
#386=EDGE_CURVE('',#347,#347,#412,.T.);
#387=EDGE_CURVE('',#348,#348,#413,.T.);
#388=EDGE_CURVE('',#349,#349,#414,.T.);
#389=EDGE_CURVE('',#350,#350,#415,.T.);
#390=EDGE_CURVE('',#351,#351,#416,.T.);
#391=EDGE_CURVE('',#352,#352,#417,.T.);
#392=EDGE_CURVE('',#353,#353,#418,.T.);
#393=EDGE_CURVE('',#354,#354,#419,.T.);
#394=EDGE_CURVE('',#355,#355,#420,.T.);
#395=EDGE_CURVE('',#334,#342,#76,.T.);
#396=EDGE_CURVE('',#335,#341,#77,.T.);
#397=EDGE_CURVE('',#329,#339,#78,.T.);
#398=EDGE_CURVE('',#331,#345,#79,.T.);
#399=CIRCLE('',#448,148.85);
#400=CIRCLE('',#449,148.85);
#401=CIRCLE('',#451,144.85);
#402=CIRCLE('',#452,117.4);
#403=CIRCLE('',#454,144.85);
#404=CIRCLE('',#455,117.4);
#405=CIRCLE('',#459,38.1);
#406=CIRCLE('',#460,25.4);
#407=CIRCLE('',#461,25.4);
#408=CIRCLE('',#463,38.1);
#409=CIRCLE('',#464,25.4);
#410=CIRCLE('',#465,25.4);
#411=CIRCLE('',#469,116.941925616877);
#412=CIRCLE('',#471,41.1);
#413=CIRCLE('',#472,116.734870380795);
#414=CIRCLE('',#475,39.1);
#415=CIRCLE('',#476,39.1);
#416=CIRCLE('',#479,116.941925616877);
#417=CIRCLE('',#481,41.1);
#418=CIRCLE('',#482,116.734870380795);
#419=CIRCLE('',#485,39.1);
#420=CIRCLE('',#486,39.1);
#421=CIRCLE('',#497,10.);
#422=INVISIBILITY((#425));
#423=PRESENTATION_LAYER_ASSIGNMENT('2','Layer 2',(#445,#446,#447,#46));
#424=PRESENTATION_LAYER_ASSIGNMENT('3','Layer 3',(#47));
#425=STYLED_ITEM('',(#430),#445);
#426=STYLED_ITEM('',(#431),#446);
#427=STYLED_ITEM('',(#432),#447);
#428=STYLED_ITEM('',(#433),#46);
#429=STYLED_ITEM('',(#434),#47);
#430=PRESENTATION_STYLE_ASSIGNMENT((#435));
#431=PRESENTATION_STYLE_ASSIGNMENT((#436));
#432=PRESENTATION_STYLE_ASSIGNMENT((#437));
#433=PRESENTATION_STYLE_ASSIGNMENT((#36));
#434=PRESENTATION_STYLE_ASSIGNMENT((#37));
#435=CURVE_STYLE('',#441,POSITIVE_LENGTH_MEASURE(0.18),#438);
#436=CURVE_STYLE('',#442,POSITIVE_LENGTH_MEASURE(0.18),#438);
#437=CURVE_STYLE('',#443,POSITIVE_LENGTH_MEASURE(0.18),#438);
#438=COLOUR_RGB('Strong Stone',0.576470588235294,0.54508278019379,0.392156862745098);
#439=COLOUR_RGB('Medium Gray',0.490196078431373,0.490196078431373,0.490196078431373);
#440=COLOUR_RGB('Light Gray',0.8,0.8,0.8);
#441=DRAUGHTING_PRE_DEFINED_CURVE_FONT('continuous');
#442=DRAUGHTING_PRE_DEFINED_CURVE_FONT('continuous');
#443=DRAUGHTING_PRE_DEFINED_CURVE_FONT('continuous');
#444=AXIS2_PLACEMENT_3D('',#627,#498,#499);
#445=AXIS2_PLACEMENT_3D('PCS',#628,#500,#501);
#446=AXIS2_PLACEMENT_3D('MCS',#629,#502,#503);
#447=AXIS2_PLACEMENT_3D('CIP',#630,#504,#505);
#448=AXIS2_PLACEMENT_3D('',#631,#506,#507);
#449=AXIS2_PLACEMENT_3D('',#633,#508,#509);
#450=AXIS2_PLACEMENT_3D('',#635,#510,#511);
#451=AXIS2_PLACEMENT_3D('',#636,#512,#513);
#452=AXIS2_PLACEMENT_3D('',#638,#514,#515);
#453=AXIS2_PLACEMENT_3D('',#640,#516,#517);
#454=AXIS2_PLACEMENT_3D('',#641,#518,#519);
#455=AXIS2_PLACEMENT_3D('',#643,#520,#521);
#456=AXIS2_PLACEMENT_3D('',#645,#522,#523);
#457=AXIS2_PLACEMENT_3D('',#646,#524,#525);
#458=AXIS2_PLACEMENT_3D('',#647,#526,#527);
#459=AXIS2_PLACEMENT_3D('',#648,#528,#529);
#460=AXIS2_PLACEMENT_3D('',#657,#533,#534);
#461=AXIS2_PLACEMENT_3D('',#665,#538,#539);
#462=AXIS2_PLACEMENT_3D('',#666,#540,#541);
#463=AXIS2_PLACEMENT_3D('',#667,#542,#543);
#464=AXIS2_PLACEMENT_3D('',#672,#545,#546);
#465=AXIS2_PLACEMENT_3D('',#680,#550,#551);
#466=AXIS2_PLACEMENT_3D('',#685,#554,#555);
#467=AXIS2_PLACEMENT_3D('',#688,#558,#559);
#468=AXIS2_PLACEMENT_3D('',#691,#562,#563);
#469=AXIS2_PLACEMENT_3D('',#692,#564,#565);
#470=AXIS2_PLACEMENT_3D('',#694,#566,#567);
#471=AXIS2_PLACEMENT_3D('',#695,#568,#569);
#472=AXIS2_PLACEMENT_3D('',#697,#570,#571);
#473=AXIS2_PLACEMENT_3D('',#699,#572,#573);
#474=AXIS2_PLACEMENT_3D('',#700,#574,#575);
#475=AXIS2_PLACEMENT_3D('',#701,#576,#577);
#476=AXIS2_PLACEMENT_3D('',#703,#578,#579);
#477=AXIS2_PLACEMENT_3D('',#705,#580,#581);
#478=AXIS2_PLACEMENT_3D('',#706,#582,#583);
#479=AXIS2_PLACEMENT_3D('',#707,#584,#585);
#480=AXIS2_PLACEMENT_3D('',#709,#586,#587);
#481=AXIS2_PLACEMENT_3D('',#710,#588,#589);
#482=AXIS2_PLACEMENT_3D('',#712,#590,#591);
#483=AXIS2_PLACEMENT_3D('',#714,#592,#593);
#484=AXIS2_PLACEMENT_3D('',#715,#594,#595);
#485=AXIS2_PLACEMENT_3D('',#716,#596,#597);
#486=AXIS2_PLACEMENT_3D('',#718,#598,#599);
#487=AXIS2_PLACEMENT_3D('',#720,#600,#601);
#488=AXIS2_PLACEMENT_3D('',#721,#602,#603);
#489=AXIS2_PLACEMENT_3D('',#722,#604,#605);
#490=AXIS2_PLACEMENT_3D('',#723,#606,#607);
#491=AXIS2_PLACEMENT_3D('',#726,#610,#611);
#492=AXIS2_PLACEMENT_3D('',#727,#612,#613);
#493=AXIS2_PLACEMENT_3D('',#728,#614,#615);
#494=AXIS2_PLACEMENT_3D('',#731,#618,#619);
#495=AXIS2_PLACEMENT_3D('',#732,#620,#621);
#496=AXIS2_PLACEMENT_3D('',#733,#622,#623);
#497=AXIS2_PLACEMENT_3D('',#735,#624,#625);
#498=DIRECTION('',(0.,0.,1.));
#499=DIRECTION('',(1.,0.,0.));
#500=DIRECTION('',(0.,0.,1.));
#501=DIRECTION('',(1.,0.,0.));
#502=DIRECTION('',(0.,0.,1.));
#503=DIRECTION('',(1.,0.,0.));
#504=DIRECTION('',(0.,0.,1.));
#505=DIRECTION('',(1.,0.,0.));
#506=DIRECTION('',(0.,0.,1.));
#507=DIRECTION('',(-1.,0.,0.));
#508=DIRECTION('',(0.,0.,-1.));
#509=DIRECTION('',(1.,0.,0.));
#510=DIRECTION('',(0.,0.,-1.));
#511=DIRECTION('',(1.,0.,0.));
#512=DIRECTION('',(0.,0.,1.));
#513=DIRECTION('',(1.,0.,0.));
#514=DIRECTION('',(0.,0.,1.));
#515=DIRECTION('',(1.,0.,0.));
#516=DIRECTION('',(0.,0.,-1.));
#517=DIRECTION('',(1.,0.,0.));
#518=DIRECTION('',(0.,0.,-1.));
#519=DIRECTION('',(-1.,0.,0.));
#520=DIRECTION('',(0.,0.,-1.));
#521=DIRECTION('',(-1.,0.,0.));
#522=DIRECTION('',(0.,0.,1.));
#523=DIRECTION('',(-1.,0.,0.));
#524=DIRECTION('',(0.,0.,-1.));
#525=DIRECTION('',(1.,0.,0.));
#526=DIRECTION('',(0.,0.,1.));
#527=DIRECTION('',(-1.,0.,0.));
#528=DIRECTION('',(0.,0.,-1.));
#529=DIRECTION('',(-1.,0.,0.));
#530=DIRECTION('',(0.984807753012208,0.173648177666933,0.));
#531=DIRECTION('',(-0.173648177666933,0.984807753012208,0.));
#532=DIRECTION('',(-0.984807753012208,-0.173648177666933,0.));
#533=DIRECTION('',(0.,0.,1.));
#534=DIRECTION('',(-1.,0.,0.));
#535=DIRECTION('',(-1.,-1.13380619344889E-16,0.));
#536=DIRECTION('',(0.,-1.,0.));
#537=DIRECTION('',(1.,-1.13380619344889E-16,0.));
#538=DIRECTION('',(0.,0.,1.));
#539=DIRECTION('',(-1.,0.,0.));
#540=DIRECTION('',(0.,0.,1.));
#541=DIRECTION('',(-1.,0.,0.));
#542=DIRECTION('',(0.,0.,1.));
#543=DIRECTION('',(1.,0.,0.));
#544=DIRECTION('',(-0.984807753012208,-0.173648177666933,0.));
#545=DIRECTION('',(0.,0.,-1.));
#546=DIRECTION('',(1.,0.,0.));
#547=DIRECTION('',(-1.,1.13380619344889E-16,0.));
#548=DIRECTION('',(0.,1.,0.));
#549=DIRECTION('',(1.,1.13380619344889E-16,0.));
#550=DIRECTION('',(0.,0.,-1.));
#551=DIRECTION('',(1.,0.,0.));
#552=DIRECTION('',(0.984807753012208,0.173648177666933,0.));
#553=DIRECTION('',(0.173648177666933,-0.984807753012208,0.));
#554=DIRECTION('',(0.,0.,-1.));
#555=DIRECTION('',(1.,0.,0.));
#556=DIRECTION('',(0.,0.,1.));
#557=DIRECTION('',(0.,0.,-1.));
#558=DIRECTION('',(0.,0.,1.));
#559=DIRECTION('',(0.,-1.,0.));
#560=DIRECTION('',(0.,0.,-1.));
#561=DIRECTION('',(0.,0.,1.));
#562=DIRECTION('',(0.,0.,1.));
#563=DIRECTION('',(0.,-1.,0.));
#564=DIRECTION('',(0.,0.,1.));
#565=DIRECTION('',(-1.,0.,0.));
#566=DIRECTION('',(0.,0.,-1.));
#567=DIRECTION('',(1.,0.,1.53218215095105E-17));
#568=DIRECTION('',(0.,0.,1.));
#569=DIRECTION('',(1.,0.,0.));
#570=DIRECTION('',(0.,0.,-1.));
#571=DIRECTION('',(1.,0.,0.));
#572=DIRECTION('',(0.,0.,-1.));
#573=DIRECTION('',(1.,0.,0.));
#574=DIRECTION('',(0.,0.,-1.));
#575=DIRECTION('',(1.,0.,0.));
#576=DIRECTION('',(0.,0.,1.));
#577=DIRECTION('',(-1.,0.,0.));
#578=DIRECTION('',(0.,0.,-1.));
#579=DIRECTION('',(1.,0.,0.));
#580=DIRECTION('',(0.,0.,-1.));
#581=DIRECTION('',(1.,0.,0.));
#582=DIRECTION('',(0.,0.,-1.));
#583=DIRECTION('',(1.,0.,0.));
#584=DIRECTION('',(0.,0.,-1.));
#585=DIRECTION('',(1.,0.,0.));
#586=DIRECTION('',(0.,0.,1.));
#587=DIRECTION('',(-1.,0.,-1.21673288457878E-17));
#588=DIRECTION('',(0.,0.,-1.));
#589=DIRECTION('',(-1.,0.,0.));
#590=DIRECTION('',(0.,0.,1.));
#591=DIRECTION('',(-1.,0.,0.));
#592=DIRECTION('',(0.,0.,1.));
#593=DIRECTION('',(-1.,0.,0.));
#594=DIRECTION('',(0.,0.,1.));
#595=DIRECTION('',(-1.,0.,0.));
#596=DIRECTION('',(0.,0.,-1.));
#597=DIRECTION('',(1.,0.,0.));
#598=DIRECTION('',(0.,0.,1.));
#599=DIRECTION('',(-1.,0.,0.));
#600=DIRECTION('',(0.,0.,-1.));
#601=DIRECTION('',(1.,0.,0.));
#602=DIRECTION('',(0.,0.,1.));
#603=DIRECTION('',(-1.,0.,0.));
#604=DIRECTION('',(0.,0.,-1.));
#605=DIRECTION('',(1.,0.,0.));
#606=DIRECTION('',(0.,0.,1.));
#607=DIRECTION('',(-1.,0.,0.));
#608=DIRECTION('',(0.,0.,1.));
#609=DIRECTION('',(0.,0.,1.));
#610=DIRECTION('',(-1.,0.,0.));
#611=DIRECTION('',(0.,0.,1.));
#612=DIRECTION('',(-1.13380619344889E-16,1.,0.));
#613=DIRECTION('',(1.,1.13624387676481E-16,0.));
#614=DIRECTION('',(-1.13380619344889E-16,-1.,0.));
#615=DIRECTION('',(-1.,1.13624387676481E-16,0.));
#616=DIRECTION('',(0.,0.,1.));
#617=DIRECTION('',(0.,0.,1.));
#618=DIRECTION('',(0.984807753012208,0.173648177666933,0.));
#619=DIRECTION('',(0.,0.,1.));
#620=DIRECTION('',(0.173648177666933,-0.984807753012208,0.));
#621=DIRECTION('',(-0.984807753012208,-0.173648177666933,0.));
#622=DIRECTION('',(-0.173648177666933,0.984807753012208,0.));
#623=DIRECTION('',(0.984807753012208,0.173648177666933,0.));
#624=DIRECTION('',(-0.727212228408714,0.682897737470365,0.0693761847516036));
#625=DIRECTION('',(-0.684358473031075,-0.729136676440193,0.00363145429888342));
#626=DIRECTION('',(0.,0.,1.));
#627=CARTESIAN_POINT('',(0.,0.,0.));
#628=CARTESIAN_POINT('',(0.,0.,0.));
#629=CARTESIAN_POINT('',(0.,0.,0.));
#630=CARTESIAN_POINT('',(0.,0.,-22.7));
#631=CARTESIAN_POINT('',(0.,0.,-16.7));
#632=CARTESIAN_POINT('',(-148.85,0.,-16.7));
#633=CARTESIAN_POINT('',(0.,0.,-8.69999999999998));
#634=CARTESIAN_POINT('',(148.85,0.,-8.69999999999998));
#635=CARTESIAN_POINT('',(0.,0.,-12.7));
#636=CARTESIAN_POINT('',(0.,0.,-4.69999999999998));
#637=CARTESIAN_POINT('',(144.85,0.,-4.69999999999998));
#638=CARTESIAN_POINT('',(0.,0.,-4.69999999999998));
#639=CARTESIAN_POINT('',(117.4,0.,-4.69999999999998));
#640=CARTESIAN_POINT('',(39.1,0.,-4.69999999999998));
#641=CARTESIAN_POINT('',(0.,0.,-20.7));
#642=CARTESIAN_POINT('',(-144.85,0.,-20.7));
#643=CARTESIAN_POINT('',(0.,0.,-20.7));
#644=CARTESIAN_POINT('',(-117.4,0.,-20.7));
#645=CARTESIAN_POINT('',(148.85,0.,-20.7));
#646=CARTESIAN_POINT('',(0.,0.,-8.69999999999998));
#647=CARTESIAN_POINT('',(0.,0.,-16.7));
#648=CARTESIAN_POINT('',(0.,0.,-25.4));
#649=CARTESIAN_POINT('',(-38.1,0.,-25.4));
#650=CARTESIAN_POINT('',(36.8183248081795,12.9400230336444,-25.4));
#651=CARTESIAN_POINT('',(-31.2377831703586,0.93989499501937,-25.4));
#652=CARTESIAN_POINT('',(-25.3224804972997,1.98292245533658,-25.4));
#653=CARTESIAN_POINT('',(-28.956107978538,-12.0001280386251,-25.4));
#654=CARTESIAN_POINT('',(-29.0324513139885,-11.5671634682357,-25.4));
#655=CARTESIAN_POINT('',(39.0236566645495,0.432964570389394,-25.4));
#656=CARTESIAN_POINT('',(-23.1171486409296,-10.5241360079185,-25.4));
#657=CARTESIAN_POINT('',(0.,0.,-25.4));
#658=CARTESIAN_POINT('',(24.5934442484171,-6.35,-25.4));
#659=CARTESIAN_POINT('',(39.1,-6.35,-25.4));
#660=CARTESIAN_POINT('',(30.6,-6.35,-25.4));
#661=CARTESIAN_POINT('',(30.6,0.,-25.4));
#662=CARTESIAN_POINT('',(30.6,6.35,-25.4));
#663=CARTESIAN_POINT('',(39.1,6.35,-25.4));
#664=CARTESIAN_POINT('',(24.5934442484171,6.35,-25.4));
#665=CARTESIAN_POINT('',(0.,0.,-25.4));
#666=CARTESIAN_POINT('',(39.1,0.,-25.4));
#667=CARTESIAN_POINT('',(0.,0.,0.));
#668=CARTESIAN_POINT('',(38.1,0.,0.));
#669=CARTESIAN_POINT('',(-1.10266592818503,6.25352923162752,0.));
#670=CARTESIAN_POINT('',(-25.3224804972997,1.98292245533658,0.));
#671=CARTESIAN_POINT('',(-31.2377831703586,0.93989499501937,0.));
#672=CARTESIAN_POINT('',(0.,0.,0.));
#673=CARTESIAN_POINT('',(24.5934442484171,6.35,0.));
#674=CARTESIAN_POINT('',(7.19966932840048E-16,6.35,0.));
#675=CARTESIAN_POINT('',(30.6,6.35,0.));
#676=CARTESIAN_POINT('',(30.6,0.,0.));
#677=CARTESIAN_POINT('',(30.6,-6.35,0.));
#678=CARTESIAN_POINT('',(7.19966932840048E-16,-6.35,0.));
#679=CARTESIAN_POINT('',(24.5934442484171,-6.35,0.));
#680=CARTESIAN_POINT('',(0.,0.,0.));
#681=CARTESIAN_POINT('',(-23.1171486409296,-10.5241360079185,0.));
#682=CARTESIAN_POINT('',(1.10266592818502,-6.25352923162752,0.));
#683=CARTESIAN_POINT('',(-29.0324513139885,-11.5671634682357,0.));
#684=CARTESIAN_POINT('',(-30.1351172421736,-5.31363423660815,0.));
#685=CARTESIAN_POINT('',(0.,0.,0.));
#686=CARTESIAN_POINT('',(-25.3224804972997,1.98292245533658,-38.1));
#687=CARTESIAN_POINT('',(24.5934442484171,6.35,-38.1));
#688=CARTESIAN_POINT('',(0.,0.,-38.1));
#689=CARTESIAN_POINT('',(-23.1171486409296,-10.5241360079185,-38.1));
#690=CARTESIAN_POINT('',(24.5934442484171,-6.35,-38.1));
#691=CARTESIAN_POINT('',(0.,0.,-38.1));
#692=CARTESIAN_POINT('',(0.,0.,-20.5772593389687));
#693=CARTESIAN_POINT('',(-116.941925616877,0.,-20.5772593389687));
#694=CARTESIAN_POINT('',(0.,0.,-20.7));
#695=CARTESIAN_POINT('',(0.,0.,-20.55));
#696=CARTESIAN_POINT('',(41.1,0.,-20.55));
#697=CARTESIAN_POINT('',(0.,0.,-20.55));
#698=CARTESIAN_POINT('',(116.734870380795,0.,-20.55));
#699=CARTESIAN_POINT('',(116.840192378865,0.,-20.55));
#700=CARTESIAN_POINT('',(0.,0.,-21.35));
#701=CARTESIAN_POINT('',(0.,0.,-24.4));
#702=CARTESIAN_POINT('',(-39.1,0.,-24.4));
#703=CARTESIAN_POINT('',(0.,0.,-22.55));
#704=CARTESIAN_POINT('',(39.1,0.,-22.55));
#705=CARTESIAN_POINT('',(0.,0.,-12.7));
#706=CARTESIAN_POINT('',(0.,0.,-22.55));
#707=CARTESIAN_POINT('',(0.,0.,-4.82274066103125));
#708=CARTESIAN_POINT('',(116.941925616877,0.,-4.82274066103125));
#709=CARTESIAN_POINT('',(0.,0.,-4.69999999999999));
#710=CARTESIAN_POINT('',(0.,0.,-4.84999999999999));
#711=CARTESIAN_POINT('',(-41.1,0.,-4.84999999999999));
#712=CARTESIAN_POINT('',(0.,0.,-4.84999999999999));
#713=CARTESIAN_POINT('',(-116.734870380795,0.,-4.84999999999999));
#714=CARTESIAN_POINT('',(116.840192378865,0.,-4.84999999999999));
#715=CARTESIAN_POINT('',(0.,0.,-4.04999999999999));
#716=CARTESIAN_POINT('',(0.,0.,-0.999999999999999));
#717=CARTESIAN_POINT('',(39.1,0.,-0.999999999999999));
#718=CARTESIAN_POINT('',(0.,0.,-2.84999999999999));
#719=CARTESIAN_POINT('',(-39.1,0.,-2.84999999999999));
#720=CARTESIAN_POINT('',(0.,0.,-12.7));
#721=CARTESIAN_POINT('',(0.,0.,-2.84999999999999));
#722=CARTESIAN_POINT('',(0.,0.,-0.999999999999999));
#723=CARTESIAN_POINT('',(0.,0.,-24.4));
#724=CARTESIAN_POINT('',(30.6,-6.35,-38.1));
#725=CARTESIAN_POINT('',(30.6,6.35,-38.1));
#726=CARTESIAN_POINT('',(30.6,6.35,-38.1));
#727=CARTESIAN_POINT('',(30.6,-6.35,-38.1));
#728=CARTESIAN_POINT('',(0.,6.35,-38.1));
#729=CARTESIAN_POINT('',(-31.2377831703586,0.93989499501937,-38.1));
#730=CARTESIAN_POINT('',(-29.0324513139885,-11.5671634682357,-38.1));
#731=CARTESIAN_POINT('',(-29.0324513139885,-11.5671634682357,-38.1));
#732=CARTESIAN_POINT('',(-31.2377831703586,0.93989499501937,-38.1));
#733=CARTESIAN_POINT('',(1.10266592818502,-6.25352923162752,-38.1));
#734=CARTESIAN_POINT('',(-93.1398693523596,-123.759119861177,-12.6245250584127));
#735=CARTESIAN_POINT('',(-86.2962846220489,-116.467753096775,-12.6608396014015));
#736=CARTESIAN_POINT('',(0.,0.,-12.7));
#737=MECHANICAL_DESIGN_GEOMETRIC_PRESENTATION_REPRESENTATION('',(#425,#426,
#427,#428,#429),#738);
#738=(
GEOMETRIC_REPRESENTATION_CONTEXT(3)
GLOBAL_UNCERTAINTY_ASSIGNED_CONTEXT((#739))
GLOBAL_UNIT_ASSIGNED_CONTEXT((#745,#741,#740))
REPRESENTATION_CONTEXT('335.25-12','TOP_LEVEL_ASSEMBLY_PART')
);
#739=UNCERTAINTY_MEASURE_WITH_UNIT(LENGTH_MEASURE(2.E-5),#745,
'DISTANCE_ACCURACY_VALUE','Maximum Tolerance applied to model');
#740=(
NAMED_UNIT(*)
SI_UNIT($,.STERADIAN.)
SOLID_ANGLE_UNIT()
);
#741=(
CONVERSION_BASED_UNIT('DEGREE',#743)
NAMED_UNIT(#742)
PLANE_ANGLE_UNIT()
);
#742=DIMENSIONAL_EXPONENTS(0.,0.,0.,0.,0.,0.,0.);
#743=PLANE_ANGLE_MEASURE_WITH_UNIT(PLANE_ANGLE_MEASURE(0.0174532925),#744);
#744=(
NAMED_UNIT(*)
PLANE_ANGLE_UNIT()
SI_UNIT($,.RADIAN.)
);
#745=(
LENGTH_UNIT()
NAMED_UNIT(*)
SI_UNIT(.MILLI.,.METRE.)
);
ENDSEC;
END-ISO-10303-21;
