ISO-10303-21;
HEADER;
/* Generated by software containing ST-Developer
 * from STEP Tools, Inc. (www.steptools.com) 
 */
/* OPTION: using custom schema-name function */

FILE_DESCRIPTION(
/* description */ (''),
/* implementation_level */ '2;1');

FILE_NAME(
/* name */ '335.25-12.00-XL1113N-R10.stp',
/* time_stamp */ '2020-03-03T09:31:47+05:00',
/* author */ (''),
/* organization */ (''),
/* preprocessor_version */ 'ST-DEVELOPER v16.7',
/* originating_system */ 'SIEMENS PLM Software NX 12.0',
/* authorisation */ '');

FILE_SCHEMA (('AUTOMOTIVE_DESIGN { 1 0 10303 214 3 1 1 1 }'));
ENDSEC;

DATA;
#10=CONSTRUCTIVE_GEOMETRY_REPRESENTATION_RELATIONSHIP(
'supplemental geometry','',#32,#11);
#11=CONSTRUCTIVE_GEOMETRY_REPRESENTATION('supplemental geometry',(#444,
#445,#446),#737);
#12=PROPERTY_DEFINITION_REPRESENTATION(#16,#14);
#13=PROPERTY_DEFINITION_REPRESENTATION(#17,#15);
#14=REPRESENTATION('',(#18),#737);
#15=REPRESENTATION('',(#19),#737);
#16=PROPERTY_DEFINITION('pmi validation property','',#23);
#17=PROPERTY_DEFINITION('pmi validation property','',#23);
#18=VALUE_REPRESENTATION_ITEM('number of annotations',COUNT_MEASURE(0.));
#19=VALUE_REPRESENTATION_ITEM('number of views',COUNT_MEASURE(0.));
#20=SHAPE_REPRESENTATION_RELATIONSHIP('None',
'relationship between 335.25-12.00-XL1113N-R10-None and 335.25-12.00-X
L1113N-R10-None',#32,#21);
#21=ADVANCED_BREP_SHAPE_REPRESENTATION('335.25-12.00-XL1113N-R10-None',
(#46,#47),#737);
#22=SHAPE_DEFINITION_REPRESENTATION(#23,#32);
#23=PRODUCT_DEFINITION_SHAPE('','',#24);
#24=PRODUCT_DEFINITION(' ','',#26,#25);
#25=PRODUCT_DEFINITION_CONTEXT('part definition',#31,'design');
#26=PRODUCT_DEFINITION_FORMATION_WITH_SPECIFIED_SOURCE(' ',' ',#28,
 .NOT_KNOWN.);
#27=PRODUCT_RELATED_PRODUCT_CATEGORY('part','',(#28));
#28=PRODUCT('inpu14587469z3if','inpu14587469z3if',' ',(#29));
#29=PRODUCT_CONTEXT(' ',#31,'mechanical');
#30=APPLICATION_PROTOCOL_DEFINITION('international standard',
'automotive_design',2010,#31);
#31=APPLICATION_CONTEXT(
'core data for automotive mechanical design processes');
#32=SHAPE_REPRESENTATION('335.25-12.00-XL1113N-R10-None',(#443),#737);
#33=SURFACE_OF_REVOLUTION('',#421,#34);
#34=AXIS1_PLACEMENT('',#735,#625);
#35=VERTEX_LOOP('',#356);
#36=SURFACE_STYLE_USAGE(.BOTH.,#38);
#37=SURFACE_STYLE_USAGE(.BOTH.,#39);
#38=SURFACE_SIDE_STYLE('',(#40));
#39=SURFACE_SIDE_STYLE('',(#41));
#40=SURFACE_STYLE_FILL_AREA(#42);
#41=SURFACE_STYLE_FILL_AREA(#43);
#42=FILL_AREA_STYLE('',(#44));
#43=FILL_AREA_STYLE('',(#45));
#44=FILL_AREA_STYLE_COLOUR('',#438);
#45=FILL_AREA_STYLE_COLOUR('',#439);
#46=MANIFOLD_SOLID_BREP('NOCUT',#48);
#47=MANIFOLD_SOLID_BREP('CUT',#49);
#48=CLOSED_SHELL('',(#113,#114,#115,#116,#117,#118,#119,#120,#121,#122,
#123,#124,#125,#126,#127,#128,#129,#130,#131,#132,#133,#134,#135,#136,#137,
#138,#139));
#49=CLOSED_SHELL('',(#140));
#50=CONICAL_SURFACE('',#469,117.4,75.);
#51=CONICAL_SURFACE('',#479,117.4,75.);
#52=FACE_OUTER_BOUND('',#206,.T.);
#53=FACE_OUTER_BOUND('',#207,.T.);
#54=FACE_OUTER_BOUND('',#232,.T.);
#55=FACE_OUTER_BOUND('',#233,.T.);
#56=FACE_OUTER_BOUND('',#234,.T.);
#57=FACE_OUTER_BOUND('',#235,.T.);
#58=FACE_OUTER_BOUND('',#236,.T.);
#59=FACE_OUTER_BOUND('',#237,.T.);
#60=LINE('',#649,#80);
#61=LINE('',#652,#81);
#62=LINE('',#654,#82);
#63=LINE('',#658,#83);
#64=LINE('',#660,#84);
#65=LINE('',#662,#85);
#66=LINE('',#668,#86);
#67=LINE('',#673,#87);
#68=LINE('',#675,#88);
#69=LINE('',#677,#89);
#70=LINE('',#681,#90);
#71=LINE('',#683,#91);
#72=LINE('',#685,#92);
#73=LINE('',#686,#93);
#74=LINE('',#688,#94);
#75=LINE('',#689,#95);
#76=LINE('',#723,#96);
#77=LINE('',#724,#97);
#78=LINE('',#728,#98);
#79=LINE('',#729,#99);
#80=VECTOR('',#529,1.);
#81=VECTOR('',#530,1.);
#82=VECTOR('',#531,1.);
#83=VECTOR('',#534,1.);
#84=VECTOR('',#535,1.);
#85=VECTOR('',#536,1.);
#86=VECTOR('',#543,1.);
#87=VECTOR('',#546,1.);
#88=VECTOR('',#547,1.);
#89=VECTOR('',#548,1.);
#90=VECTOR('',#551,1.);
#91=VECTOR('',#552,1.);
#92=VECTOR('',#555,1.);
#93=VECTOR('',#556,1.);
#94=VECTOR('',#559,1.);
#95=VECTOR('',#560,1.);
#96=VECTOR('',#607,1.);
#97=VECTOR('',#608,1.);
#98=VECTOR('',#615,1.);
#99=VECTOR('',#616,1.);
#100=CYLINDRICAL_SURFACE('',#457,148.85);
#101=CYLINDRICAL_SURFACE('',#466,25.4);
#102=CYLINDRICAL_SURFACE('',#467,25.4);
#103=CYLINDRICAL_SURFACE('',#476,39.1);
#104=CYLINDRICAL_SURFACE('',#486,39.1);
#105=TOROIDAL_SURFACE('',#454,144.85,4.);
#106=TOROIDAL_SURFACE('',#456,144.85,4.);
#107=TOROIDAL_SURFACE('',#473,116.734870380795,0.8);
#108=TOROIDAL_SURFACE('',#477,41.1,2.);
#109=TOROIDAL_SURFACE('',#483,116.734870380795,0.8);
#110=TOROIDAL_SURFACE('',#487,41.1,2.);
#111=TOROIDAL_SURFACE('',#488,38.1,1.);
#112=TOROIDAL_SURFACE('',#489,38.1,1.);
#113=ADVANCED_FACE('',(#153,#154),#141,.F.);
#114=ADVANCED_FACE('',(#155,#156),#142,.F.);
#115=ADVANCED_FACE('',(#157,#158),#105,.T.);
#116=ADVANCED_FACE('',(#159,#160),#106,.T.);
#117=ADVANCED_FACE('',(#161,#162),#100,.T.);
#118=ADVANCED_FACE('',(#163,#164),#143,.F.);
#119=ADVANCED_FACE('',(#165,#166),#144,.F.);
#120=ADVANCED_FACE('',(#52),#101,.F.);
#121=ADVANCED_FACE('',(#53),#102,.F.);
#122=ADVANCED_FACE('',(#167,#168),#50,.F.);
#123=ADVANCED_FACE('',(#169,#170),#145,.T.);
#124=ADVANCED_FACE('',(#171,#172),#107,.F.);
#125=ADVANCED_FACE('',(#173,#174),#103,.T.);
#126=ADVANCED_FACE('',(#175,#176),#108,.F.);
#127=ADVANCED_FACE('',(#177,#178),#51,.F.);
#128=ADVANCED_FACE('',(#179,#180),#146,.T.);
#129=ADVANCED_FACE('',(#181,#182),#109,.F.);
#130=ADVANCED_FACE('',(#183,#184),#104,.T.);
#131=ADVANCED_FACE('',(#185,#186),#110,.F.);
#132=ADVANCED_FACE('',(#187,#188),#111,.T.);
#133=ADVANCED_FACE('',(#189,#190),#112,.T.);
#134=ADVANCED_FACE('',(#54),#147,.T.);
#135=ADVANCED_FACE('',(#55),#148,.T.);
#136=ADVANCED_FACE('',(#56),#149,.T.);
#137=ADVANCED_FACE('',(#57),#150,.T.);
#138=ADVANCED_FACE('',(#58),#151,.T.);
#139=ADVANCED_FACE('',(#59),#152,.T.);
#140=ADVANCED_FACE('',(#191),#33,.T.);
#141=PLANE('',#449);
#142=PLANE('',#452);
#143=PLANE('',#461);
#144=PLANE('',#465);
#145=PLANE('',#472);
#146=PLANE('',#482);
#147=PLANE('',#490);
#148=PLANE('',#491);
#149=PLANE('',#492);
#150=PLANE('',#493);
#151=PLANE('',#494);
#152=PLANE('',#495);
#153=FACE_BOUND('',#192,.T.);
#154=FACE_BOUND('',#193,.T.);
#155=FACE_BOUND('',#194,.T.);
#156=FACE_BOUND('',#195,.T.);
#157=FACE_BOUND('',#196,.T.);
#158=FACE_BOUND('',#197,.T.);
#159=FACE_BOUND('',#198,.T.);
#160=FACE_BOUND('',#199,.T.);
#161=FACE_BOUND('',#200,.T.);
#162=FACE_BOUND('',#201,.T.);
#163=FACE_BOUND('',#202,.T.);
#164=FACE_BOUND('',#203,.T.);
#165=FACE_BOUND('',#204,.T.);
#166=FACE_BOUND('',#205,.T.);
#167=FACE_BOUND('',#208,.T.);
#168=FACE_BOUND('',#209,.T.);
#169=FACE_BOUND('',#210,.T.);
#170=FACE_BOUND('',#211,.T.);
#171=FACE_BOUND('',#212,.T.);
#172=FACE_BOUND('',#213,.T.);
#173=FACE_BOUND('',#214,.T.);
#174=FACE_BOUND('',#215,.T.);
#175=FACE_BOUND('',#216,.T.);
#176=FACE_BOUND('',#217,.T.);
#177=FACE_BOUND('',#218,.T.);
#178=FACE_BOUND('',#219,.T.);
#179=FACE_BOUND('',#220,.T.);
#180=FACE_BOUND('',#221,.T.);
#181=FACE_BOUND('',#222,.T.);
#182=FACE_BOUND('',#223,.T.);
#183=FACE_BOUND('',#224,.T.);
#184=FACE_BOUND('',#225,.T.);
#185=FACE_BOUND('',#226,.T.);
#186=FACE_BOUND('',#227,.T.);
#187=FACE_BOUND('',#228,.T.);
#188=FACE_BOUND('',#229,.T.);
#189=FACE_BOUND('',#230,.T.);
#190=FACE_BOUND('',#231,.T.);
#191=FACE_BOUND('',#35,.T.);
#192=EDGE_LOOP('',(#238));
#193=EDGE_LOOP('',(#239));
#194=EDGE_LOOP('',(#240));
#195=EDGE_LOOP('',(#241));
#196=EDGE_LOOP('',(#242));
#197=EDGE_LOOP('',(#243));
#198=EDGE_LOOP('',(#244));
#199=EDGE_LOOP('',(#245));
#200=EDGE_LOOP('',(#246));
#201=EDGE_LOOP('',(#247));
#202=EDGE_LOOP('',(#248));
#203=EDGE_LOOP('',(#249,#250,#251,#252,#253,#254,#255,#256));
#204=EDGE_LOOP('',(#257));
#205=EDGE_LOOP('',(#258,#259,#260,#261,#262,#263,#264,#265));
#206=EDGE_LOOP('',(#266,#267,#268,#269));
#207=EDGE_LOOP('',(#270,#271,#272,#273));
#208=EDGE_LOOP('',(#274));
#209=EDGE_LOOP('',(#275));
#210=EDGE_LOOP('',(#276));
#211=EDGE_LOOP('',(#277));
#212=EDGE_LOOP('',(#278));
#213=EDGE_LOOP('',(#279));
#214=EDGE_LOOP('',(#280));
#215=EDGE_LOOP('',(#281));
#216=EDGE_LOOP('',(#282));
#217=EDGE_LOOP('',(#283));
#218=EDGE_LOOP('',(#284));
#219=EDGE_LOOP('',(#285));
#220=EDGE_LOOP('',(#286));
#221=EDGE_LOOP('',(#287));
#222=EDGE_LOOP('',(#288));
#223=EDGE_LOOP('',(#289));
#224=EDGE_LOOP('',(#290));
#225=EDGE_LOOP('',(#291));
#226=EDGE_LOOP('',(#292));
#227=EDGE_LOOP('',(#293));
#228=EDGE_LOOP('',(#294));
#229=EDGE_LOOP('',(#295));
#230=EDGE_LOOP('',(#296));
#231=EDGE_LOOP('',(#297));
#232=EDGE_LOOP('',(#298,#299,#300,#301));
#233=EDGE_LOOP('',(#302,#303,#304,#305));
#234=EDGE_LOOP('',(#306,#307,#308,#309));
#235=EDGE_LOOP('',(#310,#311,#312,#313));
#236=EDGE_LOOP('',(#314,#315,#316,#317));
#237=EDGE_LOOP('',(#318,#319,#320,#321));
#238=ORIENTED_EDGE('',*,*,#357,.T.);
#239=ORIENTED_EDGE('',*,*,#358,.F.);
#240=ORIENTED_EDGE('',*,*,#359,.T.);
#241=ORIENTED_EDGE('',*,*,#360,.F.);
#242=ORIENTED_EDGE('',*,*,#361,.F.);
#243=ORIENTED_EDGE('',*,*,#357,.F.);
#244=ORIENTED_EDGE('',*,*,#359,.F.);
#245=ORIENTED_EDGE('',*,*,#362,.F.);
#246=ORIENTED_EDGE('',*,*,#362,.T.);
#247=ORIENTED_EDGE('',*,*,#361,.T.);
#248=ORIENTED_EDGE('',*,*,#363,.T.);
#249=ORIENTED_EDGE('',*,*,#364,.F.);
#250=ORIENTED_EDGE('',*,*,#365,.F.);
#251=ORIENTED_EDGE('',*,*,#366,.F.);
#252=ORIENTED_EDGE('',*,*,#367,.T.);
#253=ORIENTED_EDGE('',*,*,#368,.F.);
#254=ORIENTED_EDGE('',*,*,#369,.F.);
#255=ORIENTED_EDGE('',*,*,#370,.F.);
#256=ORIENTED_EDGE('',*,*,#371,.T.);
#257=ORIENTED_EDGE('',*,*,#372,.T.);
#258=ORIENTED_EDGE('',*,*,#373,.F.);
#259=ORIENTED_EDGE('',*,*,#374,.T.);
#260=ORIENTED_EDGE('',*,*,#375,.F.);
#261=ORIENTED_EDGE('',*,*,#376,.F.);
#262=ORIENTED_EDGE('',*,*,#377,.F.);
#263=ORIENTED_EDGE('',*,*,#378,.T.);
#264=ORIENTED_EDGE('',*,*,#379,.F.);
#265=ORIENTED_EDGE('',*,*,#380,.F.);
#266=ORIENTED_EDGE('',*,*,#381,.F.);
#267=ORIENTED_EDGE('',*,*,#371,.F.);
#268=ORIENTED_EDGE('',*,*,#382,.F.);
#269=ORIENTED_EDGE('',*,*,#374,.F.);
#270=ORIENTED_EDGE('',*,*,#383,.F.);
#271=ORIENTED_EDGE('',*,*,#378,.F.);
#272=ORIENTED_EDGE('',*,*,#384,.F.);
#273=ORIENTED_EDGE('',*,*,#367,.F.);
#274=ORIENTED_EDGE('',*,*,#385,.T.);
#275=ORIENTED_EDGE('',*,*,#360,.T.);
#276=ORIENTED_EDGE('',*,*,#386,.T.);
#277=ORIENTED_EDGE('',*,*,#387,.T.);
#278=ORIENTED_EDGE('',*,*,#385,.F.);
#279=ORIENTED_EDGE('',*,*,#387,.F.);
#280=ORIENTED_EDGE('',*,*,#388,.T.);
#281=ORIENTED_EDGE('',*,*,#389,.T.);
#282=ORIENTED_EDGE('',*,*,#389,.F.);
#283=ORIENTED_EDGE('',*,*,#386,.F.);
#284=ORIENTED_EDGE('',*,*,#390,.T.);
#285=ORIENTED_EDGE('',*,*,#358,.T.);
#286=ORIENTED_EDGE('',*,*,#391,.T.);
#287=ORIENTED_EDGE('',*,*,#392,.T.);
#288=ORIENTED_EDGE('',*,*,#390,.F.);
#289=ORIENTED_EDGE('',*,*,#392,.F.);
#290=ORIENTED_EDGE('',*,*,#393,.T.);
#291=ORIENTED_EDGE('',*,*,#394,.T.);
#292=ORIENTED_EDGE('',*,*,#394,.F.);
#293=ORIENTED_EDGE('',*,*,#391,.F.);
#294=ORIENTED_EDGE('',*,*,#372,.F.);
#295=ORIENTED_EDGE('',*,*,#393,.F.);
#296=ORIENTED_EDGE('',*,*,#388,.F.);
#297=ORIENTED_EDGE('',*,*,#363,.F.);
#298=ORIENTED_EDGE('',*,*,#369,.T.);
#299=ORIENTED_EDGE('',*,*,#395,.T.);
#300=ORIENTED_EDGE('',*,*,#376,.T.);
#301=ORIENTED_EDGE('',*,*,#396,.F.);
#302=ORIENTED_EDGE('',*,*,#377,.T.);
#303=ORIENTED_EDGE('',*,*,#395,.F.);
#304=ORIENTED_EDGE('',*,*,#368,.T.);
#305=ORIENTED_EDGE('',*,*,#384,.T.);
#306=ORIENTED_EDGE('',*,*,#375,.T.);
#307=ORIENTED_EDGE('',*,*,#382,.T.);
#308=ORIENTED_EDGE('',*,*,#370,.T.);
#309=ORIENTED_EDGE('',*,*,#396,.T.);
#310=ORIENTED_EDGE('',*,*,#365,.T.);
#311=ORIENTED_EDGE('',*,*,#397,.T.);
#312=ORIENTED_EDGE('',*,*,#380,.T.);
#313=ORIENTED_EDGE('',*,*,#398,.F.);
#314=ORIENTED_EDGE('',*,*,#373,.T.);
#315=ORIENTED_EDGE('',*,*,#397,.F.);
#316=ORIENTED_EDGE('',*,*,#364,.T.);
#317=ORIENTED_EDGE('',*,*,#381,.T.);
#318=ORIENTED_EDGE('',*,*,#379,.T.);
#319=ORIENTED_EDGE('',*,*,#383,.T.);
#320=ORIENTED_EDGE('',*,*,#366,.T.);
#321=ORIENTED_EDGE('',*,*,#398,.T.);
#322=VERTEX_POINT('',#631);
#323=VERTEX_POINT('',#633);
#324=VERTEX_POINT('',#636);
#325=VERTEX_POINT('',#638);
#326=VERTEX_POINT('',#641);
#327=VERTEX_POINT('',#644);
#328=VERTEX_POINT('',#648);
#329=VERTEX_POINT('',#650);
#330=VERTEX_POINT('',#651);
#331=VERTEX_POINT('',#653);
#332=VERTEX_POINT('',#655);
#333=VERTEX_POINT('',#657);
#334=VERTEX_POINT('',#659);
#335=VERTEX_POINT('',#661);
#336=VERTEX_POINT('',#663);
#337=VERTEX_POINT('',#667);
#338=VERTEX_POINT('',#669);
#339=VERTEX_POINT('',#670);
#340=VERTEX_POINT('',#672);
#341=VERTEX_POINT('',#674);
#342=VERTEX_POINT('',#676);
#343=VERTEX_POINT('',#678);
#344=VERTEX_POINT('',#680);
#345=VERTEX_POINT('',#682);
#346=VERTEX_POINT('',#692);
#347=VERTEX_POINT('',#695);
#348=VERTEX_POINT('',#697);
#349=VERTEX_POINT('',#701);
#350=VERTEX_POINT('',#703);
#351=VERTEX_POINT('',#707);
#352=VERTEX_POINT('',#710);
#353=VERTEX_POINT('',#712);
#354=VERTEX_POINT('',#716);
#355=VERTEX_POINT('',#718);
#356=VERTEX_POINT('',#733);
#357=EDGE_CURVE('',#322,#322,#399,.T.);
#358=EDGE_CURVE('',#323,#323,#400,.T.);
#359=EDGE_CURVE('',#324,#324,#401,.T.);
#360=EDGE_CURVE('',#325,#325,#402,.T.);
#361=EDGE_CURVE('',#326,#326,#403,.T.);
#362=EDGE_CURVE('',#327,#327,#404,.T.);
#363=EDGE_CURVE('',#328,#328,#405,.T.);
#364=EDGE_CURVE('',#329,#330,#60,.T.);
#365=EDGE_CURVE('',#331,#329,#61,.T.);
#366=EDGE_CURVE('',#332,#331,#62,.T.);
#367=EDGE_CURVE('',#332,#333,#406,.T.);
#368=EDGE_CURVE('',#334,#333,#63,.T.);
#369=EDGE_CURVE('',#335,#334,#64,.T.);
#370=EDGE_CURVE('',#336,#335,#65,.T.);
#371=EDGE_CURVE('',#336,#330,#407,.T.);
#372=EDGE_CURVE('',#337,#337,#408,.T.);
#373=EDGE_CURVE('',#338,#339,#66,.T.);
#374=EDGE_CURVE('',#338,#340,#409,.T.);
#375=EDGE_CURVE('',#341,#340,#67,.T.);
#376=EDGE_CURVE('',#342,#341,#68,.T.);
#377=EDGE_CURVE('',#343,#342,#69,.T.);
#378=EDGE_CURVE('',#343,#344,#410,.T.);
#379=EDGE_CURVE('',#345,#344,#70,.T.);
#380=EDGE_CURVE('',#339,#345,#71,.T.);
#381=EDGE_CURVE('',#330,#338,#72,.T.);
#382=EDGE_CURVE('',#340,#336,#73,.T.);
#383=EDGE_CURVE('',#344,#332,#74,.T.);
#384=EDGE_CURVE('',#333,#343,#75,.T.);
#385=EDGE_CURVE('',#346,#346,#411,.T.);
#386=EDGE_CURVE('',#347,#347,#412,.T.);
#387=EDGE_CURVE('',#348,#348,#413,.T.);
#388=EDGE_CURVE('',#349,#349,#414,.T.);
#389=EDGE_CURVE('',#350,#350,#415,.T.);
#390=EDGE_CURVE('',#351,#351,#416,.T.);
#391=EDGE_CURVE('',#352,#352,#417,.T.);
#392=EDGE_CURVE('',#353,#353,#418,.T.);
#393=EDGE_CURVE('',#354,#354,#419,.T.);
#394=EDGE_CURVE('',#355,#355,#420,.T.);
#395=EDGE_CURVE('',#334,#342,#76,.T.);
#396=EDGE_CURVE('',#335,#341,#77,.T.);
#397=EDGE_CURVE('',#329,#339,#78,.T.);
#398=EDGE_CURVE('',#331,#345,#79,.T.);
#399=CIRCLE('',#447,144.85);
#400=CIRCLE('',#448,117.4);
#401=CIRCLE('',#450,144.85);
#402=CIRCLE('',#451,117.4);
#403=CIRCLE('',#453,148.85);
#404=CIRCLE('',#455,148.85);
#405=CIRCLE('',#458,38.1);
#406=CIRCLE('',#459,25.4);
#407=CIRCLE('',#460,25.4);
#408=CIRCLE('',#462,38.1);
#409=CIRCLE('',#463,25.4);
#410=CIRCLE('',#464,25.4);
#411=CIRCLE('',#468,116.941925616877);
#412=CIRCLE('',#470,41.1);
#413=CIRCLE('',#471,116.734870380795);
#414=CIRCLE('',#474,39.1);
#415=CIRCLE('',#475,39.1);
#416=CIRCLE('',#478,116.941925616877);
#417=CIRCLE('',#480,41.1);
#418=CIRCLE('',#481,116.734870380795);
#419=CIRCLE('',#484,39.1);
#420=CIRCLE('',#485,39.1);
#421=CIRCLE('',#496,10.);
#422=PRESENTATION_LAYER_ASSIGNMENT('2','Layer 2',(#444,#445,#446,#46));
#423=PRESENTATION_LAYER_ASSIGNMENT('3','Layer 3',(#47));
#424=STYLED_ITEM('',(#429),#444);
#425=STYLED_ITEM('',(#430),#445);
#426=STYLED_ITEM('',(#431),#446);
#427=STYLED_ITEM('',(#432),#46);
#428=STYLED_ITEM('',(#433),#47);
#429=PRESENTATION_STYLE_ASSIGNMENT((#434));
#430=PRESENTATION_STYLE_ASSIGNMENT((#435));
#431=PRESENTATION_STYLE_ASSIGNMENT((#436));
#432=PRESENTATION_STYLE_ASSIGNMENT((#36));
#433=PRESENTATION_STYLE_ASSIGNMENT((#37));
#434=CURVE_STYLE('',#440,POSITIVE_LENGTH_MEASURE(0.18),#437);
#435=CURVE_STYLE('',#441,POSITIVE_LENGTH_MEASURE(0.18),#437);
#436=CURVE_STYLE('',#442,POSITIVE_LENGTH_MEASURE(0.18),#437);
#437=COLOUR_RGB('Strong Stone',0.576470588235294,0.54508278019379,0.392156862745098);
#438=COLOUR_RGB('Medium Gray',0.490196078431373,0.490196078431373,0.490196078431373);
#439=COLOUR_RGB('Light Gray',0.8,0.8,0.8);
#440=DRAUGHTING_PRE_DEFINED_CURVE_FONT('continuous');
#441=DRAUGHTING_PRE_DEFINED_CURVE_FONT('continuous');
#442=DRAUGHTING_PRE_DEFINED_CURVE_FONT('continuous');
#443=AXIS2_PLACEMENT_3D('',#626,#497,#498);
#444=AXIS2_PLACEMENT_3D('PCS',#627,#499,#500);
#445=AXIS2_PLACEMENT_3D('MCS',#628,#501,#502);
#446=AXIS2_PLACEMENT_3D('CIP',#629,#503,#504);
#447=AXIS2_PLACEMENT_3D('',#630,#505,#506);
#448=AXIS2_PLACEMENT_3D('',#632,#507,#508);
#449=AXIS2_PLACEMENT_3D('',#634,#509,#510);
#450=AXIS2_PLACEMENT_3D('',#635,#511,#512);
#451=AXIS2_PLACEMENT_3D('',#637,#513,#514);
#452=AXIS2_PLACEMENT_3D('',#639,#515,#516);
#453=AXIS2_PLACEMENT_3D('',#640,#517,#518);
#454=AXIS2_PLACEMENT_3D('',#642,#519,#520);
#455=AXIS2_PLACEMENT_3D('',#643,#521,#522);
#456=AXIS2_PLACEMENT_3D('',#645,#523,#524);
#457=AXIS2_PLACEMENT_3D('',#646,#525,#526);
#458=AXIS2_PLACEMENT_3D('',#647,#527,#528);
#459=AXIS2_PLACEMENT_3D('',#656,#532,#533);
#460=AXIS2_PLACEMENT_3D('',#664,#537,#538);
#461=AXIS2_PLACEMENT_3D('',#665,#539,#540);
#462=AXIS2_PLACEMENT_3D('',#666,#541,#542);
#463=AXIS2_PLACEMENT_3D('',#671,#544,#545);
#464=AXIS2_PLACEMENT_3D('',#679,#549,#550);
#465=AXIS2_PLACEMENT_3D('',#684,#553,#554);
#466=AXIS2_PLACEMENT_3D('',#687,#557,#558);
#467=AXIS2_PLACEMENT_3D('',#690,#561,#562);
#468=AXIS2_PLACEMENT_3D('',#691,#563,#564);
#469=AXIS2_PLACEMENT_3D('',#693,#565,#566);
#470=AXIS2_PLACEMENT_3D('',#694,#567,#568);
#471=AXIS2_PLACEMENT_3D('',#696,#569,#570);
#472=AXIS2_PLACEMENT_3D('',#698,#571,#572);
#473=AXIS2_PLACEMENT_3D('',#699,#573,#574);
#474=AXIS2_PLACEMENT_3D('',#700,#575,#576);
#475=AXIS2_PLACEMENT_3D('',#702,#577,#578);
#476=AXIS2_PLACEMENT_3D('',#704,#579,#580);
#477=AXIS2_PLACEMENT_3D('',#705,#581,#582);
#478=AXIS2_PLACEMENT_3D('',#706,#583,#584);
#479=AXIS2_PLACEMENT_3D('',#708,#585,#586);
#480=AXIS2_PLACEMENT_3D('',#709,#587,#588);
#481=AXIS2_PLACEMENT_3D('',#711,#589,#590);
#482=AXIS2_PLACEMENT_3D('',#713,#591,#592);
#483=AXIS2_PLACEMENT_3D('',#714,#593,#594);
#484=AXIS2_PLACEMENT_3D('',#715,#595,#596);
#485=AXIS2_PLACEMENT_3D('',#717,#597,#598);
#486=AXIS2_PLACEMENT_3D('',#719,#599,#600);
#487=AXIS2_PLACEMENT_3D('',#720,#601,#602);
#488=AXIS2_PLACEMENT_3D('',#721,#603,#604);
#489=AXIS2_PLACEMENT_3D('',#722,#605,#606);
#490=AXIS2_PLACEMENT_3D('',#725,#609,#610);
#491=AXIS2_PLACEMENT_3D('',#726,#611,#612);
#492=AXIS2_PLACEMENT_3D('',#727,#613,#614);
#493=AXIS2_PLACEMENT_3D('',#730,#617,#618);
#494=AXIS2_PLACEMENT_3D('',#731,#619,#620);
#495=AXIS2_PLACEMENT_3D('',#732,#621,#622);
#496=AXIS2_PLACEMENT_3D('',#734,#623,#624);
#497=DIRECTION('',(0.,0.,1.));
#498=DIRECTION('',(1.,0.,0.));
#499=DIRECTION('',(0.,0.,1.));
#500=DIRECTION('',(1.,0.,0.));
#501=DIRECTION('',(0.,0.,1.));
#502=DIRECTION('',(1.,0.,0.));
#503=DIRECTION('',(0.,0.,1.));
#504=DIRECTION('',(1.,0.,0.));
#505=DIRECTION('',(0.,0.,-1.));
#506=DIRECTION('',(1.,0.,0.));
#507=DIRECTION('',(0.,0.,-1.));
#508=DIRECTION('',(1.,0.,0.));
#509=DIRECTION('',(0.,0.,1.));
#510=DIRECTION('',(1.,0.,0.));
#511=DIRECTION('',(0.,0.,1.));
#512=DIRECTION('',(-1.,0.,0.));
#513=DIRECTION('',(0.,0.,1.));
#514=DIRECTION('',(-1.,0.,0.));
#515=DIRECTION('',(0.,0.,-1.));
#516=DIRECTION('',(-1.,0.,0.));
#517=DIRECTION('',(0.,0.,1.));
#518=DIRECTION('',(1.,0.,0.));
#519=DIRECTION('',(0.,0.,1.));
#520=DIRECTION('',(1.,0.,0.));
#521=DIRECTION('',(0.,0.,-1.));
#522=DIRECTION('',(-1.,0.,0.));
#523=DIRECTION('',(0.,0.,-1.));
#524=DIRECTION('',(-1.,0.,0.));
#525=DIRECTION('',(0.,0.,1.));
#526=DIRECTION('',(1.,0.,0.));
#527=DIRECTION('',(0.,0.,1.));
#528=DIRECTION('',(-1.,0.,0.));
#529=DIRECTION('',(0.984807753012208,-0.173648177666933,0.));
#530=DIRECTION('',(-0.173648177666933,-0.984807753012208,0.));
#531=DIRECTION('',(-0.984807753012208,0.173648177666933,0.));
#532=DIRECTION('',(0.,0.,-1.));
#533=DIRECTION('',(-1.,0.,0.));
#534=DIRECTION('',(-1.,1.13380619344889E-16,0.));
#535=DIRECTION('',(0.,1.,0.));
#536=DIRECTION('',(1.,1.13380619344889E-16,0.));
#537=DIRECTION('',(0.,0.,-1.));
#538=DIRECTION('',(-1.,0.,0.));
#539=DIRECTION('',(0.,0.,-1.));
#540=DIRECTION('',(-1.,0.,0.));
#541=DIRECTION('',(0.,0.,-1.));
#542=DIRECTION('',(1.,0.,0.));
#543=DIRECTION('',(-0.984807753012208,0.173648177666933,0.));
#544=DIRECTION('',(0.,0.,1.));
#545=DIRECTION('',(1.,0.,0.));
#546=DIRECTION('',(-1.,-1.13380619344889E-16,0.));
#547=DIRECTION('',(0.,-1.,0.));
#548=DIRECTION('',(1.,-1.13380619344889E-16,0.));
#549=DIRECTION('',(0.,0.,1.));
#550=DIRECTION('',(1.,0.,0.));
#551=DIRECTION('',(0.984807753012208,-0.173648177666933,0.));
#552=DIRECTION('',(0.173648177666933,0.984807753012208,0.));
#553=DIRECTION('',(0.,0.,1.));
#554=DIRECTION('',(1.,0.,0.));
#555=DIRECTION('',(0.,0.,-1.));
#556=DIRECTION('',(0.,0.,1.));
#557=DIRECTION('',(0.,0.,-1.));
#558=DIRECTION('',(0.,1.,0.));
#559=DIRECTION('',(0.,0.,1.));
#560=DIRECTION('',(0.,0.,-1.));
#561=DIRECTION('',(0.,0.,-1.));
#562=DIRECTION('',(0.,1.,0.));
#563=DIRECTION('',(0.,0.,-1.));
#564=DIRECTION('',(-1.,0.,0.));
#565=DIRECTION('',(0.,0.,1.));
#566=DIRECTION('',(1.,0.,-1.21673288457878E-17));
#567=DIRECTION('',(0.,0.,-1.));
#568=DIRECTION('',(1.,0.,0.));
#569=DIRECTION('',(0.,0.,1.));
#570=DIRECTION('',(1.,0.,0.));
#571=DIRECTION('',(0.,0.,1.));
#572=DIRECTION('',(1.,0.,0.));
#573=DIRECTION('',(0.,0.,1.));
#574=DIRECTION('',(1.,0.,0.));
#575=DIRECTION('',(0.,0.,-1.));
#576=DIRECTION('',(-1.,0.,0.));
#577=DIRECTION('',(0.,0.,1.));
#578=DIRECTION('',(1.,0.,0.));
#579=DIRECTION('',(0.,0.,1.));
#580=DIRECTION('',(1.,0.,0.));
#581=DIRECTION('',(0.,0.,1.));
#582=DIRECTION('',(1.,0.,0.));
#583=DIRECTION('',(0.,0.,1.));
#584=DIRECTION('',(1.,0.,0.));
#585=DIRECTION('',(0.,0.,-1.));
#586=DIRECTION('',(-1.,0.,1.53218215095105E-17));
#587=DIRECTION('',(0.,0.,1.));
#588=DIRECTION('',(-1.,0.,0.));
#589=DIRECTION('',(0.,0.,-1.));
#590=DIRECTION('',(-1.,0.,0.));
#591=DIRECTION('',(0.,0.,-1.));
#592=DIRECTION('',(-1.,0.,0.));
#593=DIRECTION('',(0.,0.,-1.));
#594=DIRECTION('',(-1.,0.,0.));
#595=DIRECTION('',(0.,0.,1.));
#596=DIRECTION('',(1.,0.,0.));
#597=DIRECTION('',(0.,0.,-1.));
#598=DIRECTION('',(-1.,0.,0.));
#599=DIRECTION('',(0.,0.,1.));
#600=DIRECTION('',(1.,0.,0.));
#601=DIRECTION('',(0.,0.,-1.));
#602=DIRECTION('',(-1.,0.,0.));
#603=DIRECTION('',(0.,0.,1.));
#604=DIRECTION('',(1.,0.,0.));
#605=DIRECTION('',(0.,0.,-1.));
#606=DIRECTION('',(-1.,0.,0.));
#607=DIRECTION('',(0.,0.,-1.));
#608=DIRECTION('',(0.,0.,-1.));
#609=DIRECTION('',(-1.,0.,0.));
#610=DIRECTION('',(0.,0.,-1.));
#611=DIRECTION('',(-1.13380619344889E-16,-1.,0.));
#612=DIRECTION('',(1.,-1.13624387676481E-16,0.));
#613=DIRECTION('',(-1.13380619344889E-16,1.,0.));
#614=DIRECTION('',(-1.,-1.13624387676481E-16,0.));
#615=DIRECTION('',(0.,0.,-1.));
#616=DIRECTION('',(0.,0.,-1.));
#617=DIRECTION('',(0.984807753012208,-0.173648177666933,0.));
#618=DIRECTION('',(0.,0.,-1.));
#619=DIRECTION('',(0.173648177666933,0.984807753012208,0.));
#620=DIRECTION('',(-0.984807753012208,0.173648177666933,0.));
#621=DIRECTION('',(-0.173648177666933,-0.984807753012208,0.));
#622=DIRECTION('',(0.984807753012208,-0.173648177666933,0.));
#623=DIRECTION('',(-0.480592922259083,-0.874195280279976,-0.0693761847516037));
#624=DIRECTION('',(-0.876179209500092,0.481971788987145,-0.00363145429888339));
#625=DIRECTION('',(0.,0.,-1.));
#626=CARTESIAN_POINT('',(0.,0.,0.));
#627=CARTESIAN_POINT('',(0.,0.,0.));
#628=CARTESIAN_POINT('',(0.,0.,0.));
#629=CARTESIAN_POINT('',(0.,0.,-22.7));
#630=CARTESIAN_POINT('',(0.,0.,-20.7));
#631=CARTESIAN_POINT('',(144.85,0.,-20.7));
#632=CARTESIAN_POINT('',(0.,0.,-20.7));
#633=CARTESIAN_POINT('',(117.4,0.,-20.7));
#634=CARTESIAN_POINT('',(39.1,0.,-20.7));
#635=CARTESIAN_POINT('',(0.,0.,-4.69999999999998));
#636=CARTESIAN_POINT('',(-144.85,0.,-4.69999999999998));
#637=CARTESIAN_POINT('',(0.,0.,-4.69999999999998));
#638=CARTESIAN_POINT('',(-117.4,0.,-4.69999999999998));
#639=CARTESIAN_POINT('',(148.85,0.,-4.69999999999998));
#640=CARTESIAN_POINT('',(0.,0.,-16.7));
#641=CARTESIAN_POINT('',(148.85,0.,-16.7));
#642=CARTESIAN_POINT('',(0.,0.,-16.7));
#643=CARTESIAN_POINT('',(0.,0.,-8.69999999999998));
#644=CARTESIAN_POINT('',(-148.85,0.,-8.69999999999998));
#645=CARTESIAN_POINT('',(0.,0.,-8.69999999999998));
#646=CARTESIAN_POINT('',(0.,0.,-12.7));
#647=CARTESIAN_POINT('',(0.,0.,0.));
#648=CARTESIAN_POINT('',(-38.1,0.,0.));
#649=CARTESIAN_POINT('',(36.8183248081795,-12.9400230336444,0.));
#650=CARTESIAN_POINT('',(-31.2377831703586,-0.93989499501937,0.));
#651=CARTESIAN_POINT('',(-25.3224804972997,-1.98292245533658,0.));
#652=CARTESIAN_POINT('',(-28.956107978538,12.0001280386251,0.));
#653=CARTESIAN_POINT('',(-29.0324513139885,11.5671634682357,0.));
#654=CARTESIAN_POINT('',(39.0236566645495,-0.432964570389394,0.));
#655=CARTESIAN_POINT('',(-23.1171486409296,10.5241360079185,0.));
#656=CARTESIAN_POINT('',(0.,0.,0.));
#657=CARTESIAN_POINT('',(24.5934442484171,6.35,0.));
#658=CARTESIAN_POINT('',(39.1,6.35,0.));
#659=CARTESIAN_POINT('',(30.6,6.35,0.));
#660=CARTESIAN_POINT('',(30.6,0.,0.));
#661=CARTESIAN_POINT('',(30.6,-6.35,0.));
#662=CARTESIAN_POINT('',(39.1,-6.35,0.));
#663=CARTESIAN_POINT('',(24.5934442484171,-6.35,0.));
#664=CARTESIAN_POINT('',(0.,0.,0.));
#665=CARTESIAN_POINT('',(39.1,0.,0.));
#666=CARTESIAN_POINT('',(0.,0.,-25.4));
#667=CARTESIAN_POINT('',(38.1,0.,-25.4));
#668=CARTESIAN_POINT('',(-1.10266592818503,-6.25352923162752,-25.4));
#669=CARTESIAN_POINT('',(-25.3224804972997,-1.98292245533658,-25.4));
#670=CARTESIAN_POINT('',(-31.2377831703586,-0.93989499501937,-25.4));
#671=CARTESIAN_POINT('',(0.,0.,-25.4));
#672=CARTESIAN_POINT('',(24.5934442484171,-6.35,-25.4));
#673=CARTESIAN_POINT('',(7.19966932840048E-16,-6.35,-25.4));
#674=CARTESIAN_POINT('',(30.6,-6.35,-25.4));
#675=CARTESIAN_POINT('',(30.6,0.,-25.4));
#676=CARTESIAN_POINT('',(30.6,6.35,-25.4));
#677=CARTESIAN_POINT('',(7.19966932840048E-16,6.35,-25.4));
#678=CARTESIAN_POINT('',(24.5934442484171,6.35,-25.4));
#679=CARTESIAN_POINT('',(0.,0.,-25.4));
#680=CARTESIAN_POINT('',(-23.1171486409296,10.5241360079185,-25.4));
#681=CARTESIAN_POINT('',(1.10266592818502,6.25352923162752,-25.4));
#682=CARTESIAN_POINT('',(-29.0324513139885,11.5671634682357,-25.4));
#683=CARTESIAN_POINT('',(-30.1351172421736,5.31363423660815,-25.4));
#684=CARTESIAN_POINT('',(0.,0.,-25.4));
#685=CARTESIAN_POINT('',(-25.3224804972997,-1.98292245533658,12.7));
#686=CARTESIAN_POINT('',(24.5934442484171,-6.35,12.7));
#687=CARTESIAN_POINT('',(0.,0.,12.7));
#688=CARTESIAN_POINT('',(-23.1171486409296,10.5241360079185,12.7));
#689=CARTESIAN_POINT('',(24.5934442484171,6.35,12.7));
#690=CARTESIAN_POINT('',(0.,0.,12.7));
#691=CARTESIAN_POINT('',(0.,0.,-4.82274066103125));
#692=CARTESIAN_POINT('',(-116.941925616877,0.,-4.82274066103125));
#693=CARTESIAN_POINT('',(0.,0.,-4.69999999999999));
#694=CARTESIAN_POINT('',(0.,0.,-4.84999999999999));
#695=CARTESIAN_POINT('',(41.1,0.,-4.84999999999999));
#696=CARTESIAN_POINT('',(0.,0.,-4.84999999999999));
#697=CARTESIAN_POINT('',(116.734870380795,0.,-4.84999999999999));
#698=CARTESIAN_POINT('',(116.840192378865,0.,-4.84999999999999));
#699=CARTESIAN_POINT('',(0.,0.,-4.04999999999999));
#700=CARTESIAN_POINT('',(0.,0.,-0.999999999999999));
#701=CARTESIAN_POINT('',(-39.1,0.,-0.999999999999999));
#702=CARTESIAN_POINT('',(0.,0.,-2.84999999999999));
#703=CARTESIAN_POINT('',(39.1,0.,-2.84999999999999));
#704=CARTESIAN_POINT('',(0.,0.,-12.7));
#705=CARTESIAN_POINT('',(0.,0.,-2.84999999999999));
#706=CARTESIAN_POINT('',(0.,0.,-20.5772593389687));
#707=CARTESIAN_POINT('',(116.941925616877,0.,-20.5772593389687));
#708=CARTESIAN_POINT('',(0.,0.,-20.7));
#709=CARTESIAN_POINT('',(0.,0.,-20.55));
#710=CARTESIAN_POINT('',(-41.1,0.,-20.55));
#711=CARTESIAN_POINT('',(0.,0.,-20.55));
#712=CARTESIAN_POINT('',(-116.734870380795,0.,-20.55));
#713=CARTESIAN_POINT('',(116.840192378865,0.,-20.55));
#714=CARTESIAN_POINT('',(0.,0.,-21.35));
#715=CARTESIAN_POINT('',(0.,0.,-24.4));
#716=CARTESIAN_POINT('',(39.1,0.,-24.4));
#717=CARTESIAN_POINT('',(0.,0.,-22.55));
#718=CARTESIAN_POINT('',(-39.1,0.,-22.55));
#719=CARTESIAN_POINT('',(0.,0.,-12.7));
#720=CARTESIAN_POINT('',(0.,0.,-22.55));
#721=CARTESIAN_POINT('',(0.,0.,-24.4));
#722=CARTESIAN_POINT('',(0.,0.,-0.999999999999999));
#723=CARTESIAN_POINT('',(30.6,6.35,12.7));
#724=CARTESIAN_POINT('',(30.6,-6.35,12.7));
#725=CARTESIAN_POINT('',(30.6,-6.35,12.7));
#726=CARTESIAN_POINT('',(30.6,6.35,12.7));
#727=CARTESIAN_POINT('',(0.,-6.35,12.7));
#728=CARTESIAN_POINT('',(-31.2377831703586,-0.93989499501937,12.7));
#729=CARTESIAN_POINT('',(-29.0324513139885,11.5671634682357,12.7));
#730=CARTESIAN_POINT('',(-29.0324513139885,11.5671634682357,12.7));
#731=CARTESIAN_POINT('',(-31.2377831703586,-0.93989499501937,12.7));
#732=CARTESIAN_POINT('',(1.10266592818502,6.25352923162752,12.7));
#733=CARTESIAN_POINT('',(-126.824950920431,88.9201149111837,-12.7754749415874));
#734=CARTESIAN_POINT('',(-118.06315882543,84.1003970213123,-12.7391603985985));
#735=CARTESIAN_POINT('',(0.,0.,-12.7));
#736=MECHANICAL_DESIGN_GEOMETRIC_PRESENTATION_REPRESENTATION('',(#424,#425,
#426,#427,#428),#737);
#737=(
GEOMETRIC_REPRESENTATION_CONTEXT(3)
GLOBAL_UNCERTAINTY_ASSIGNED_CONTEXT((#738))
GLOBAL_UNIT_ASSIGNED_CONTEXT((#744,#740,#739))
REPRESENTATION_CONTEXT('335.25-12','TOP_LEVEL_ASSEMBLY_PART')
);
#738=UNCERTAINTY_MEASURE_WITH_UNIT(LENGTH_MEASURE(2.E-5),#744,
'DISTANCE_ACCURACY_VALUE','Maximum Tolerance applied to model');
#739=(
NAMED_UNIT(*)
SI_UNIT($,.STERADIAN.)
SOLID_ANGLE_UNIT()
);
#740=(
CONVERSION_BASED_UNIT('DEGREE',#742)
NAMED_UNIT(#741)
PLANE_ANGLE_UNIT()
);
#741=DIMENSIONAL_EXPONENTS(0.,0.,0.,0.,0.,0.,0.);
#742=PLANE_ANGLE_MEASURE_WITH_UNIT(PLANE_ANGLE_MEASURE(0.0174532925),#743);
#743=(
NAMED_UNIT(*)
PLANE_ANGLE_UNIT()
SI_UNIT($,.RADIAN.)
);
#744=(
LENGTH_UNIT()
NAMED_UNIT(*)
SI_UNIT(.MILLI.,.METRE.)
);
ENDSEC;
END-ISO-10303-21;
