ISO-10303-21;
HEADER;
/* Generated by software containing ST-Developer
 * from STEP Tools, Inc. (www.steptools.com) 
 */
/* OPTION: using custom schema-name function */

FILE_DESCRIPTION(
/* description */ (''),
/* implementation_level */ '2;1');

FILE_NAME(
/* name */ '335.25-10.00-XL0911L-R8.stp',
/* time_stamp */ '2020-03-05T16:24:32+06:00',
/* author */ (''),
/* organization */ (''),
/* preprocessor_version */ 'ST-DEVELOPER v16.7',
/* originating_system */ 'SIEMENS PLM Software NX 12.0',
/* authorisation */ '');

FILE_SCHEMA (('AUTOMOTIVE_DESIGN { 1 0 10303 214 3 1 1 1 }'));
ENDSEC;

DATA;
#10=CONSTRUCTIVE_GEOMETRY_REPRESENTATION_RELATIONSHIP(
'supplemental geometry','',#24,#11);
#11=CONSTRUCTIVE_GEOMETRY_REPRESENTATION('supplemental geometry',(#437,
#438,#439),#730);
#12=SHAPE_REPRESENTATION_RELATIONSHIP('None',
'relationship between 335.25-10.00-XL0911L-R8-None and 335.25-10.00-XL
0911L-R8-None',#24,#13);
#13=ADVANCED_BREP_SHAPE_REPRESENTATION('335.25-10.00-XL0911L-R8-None',(#38,
#39),#730);
#14=SHAPE_DEFINITION_REPRESENTATION(#15,#24);
#15=PRODUCT_DEFINITION_SHAPE('','',#16);
#16=PRODUCT_DEFINITION(' ','',#18,#17);
#17=PRODUCT_DEFINITION_CONTEXT('part definition',#23,'design');
#18=PRODUCT_DEFINITION_FORMATION_WITH_SPECIFIED_SOURCE(' ',' ',#20,
 .NOT_KNOWN.);
#19=PRODUCT_RELATED_PRODUCT_CATEGORY('part','',(#20));
#20=PRODUCT('335.25-10.00-XL0911L-R8','335.25-10.00-XL0911L-R8',' ',(#21));
#21=PRODUCT_CONTEXT(' ',#23,'mechanical');
#22=APPLICATION_PROTOCOL_DEFINITION('international standard',
'automotive_design',2010,#23);
#23=APPLICATION_CONTEXT(
'core data for automotive mechanical design processes');
#24=SHAPE_REPRESENTATION('335.25-10.00-XL0911L-R8-None',(#436),#730);
#25=SURFACE_OF_REVOLUTION('',#413,#26);
#26=AXIS1_PLACEMENT('',#728,#618);
#27=VERTEX_LOOP('',#348);
#28=SURFACE_STYLE_USAGE(.BOTH.,#30);
#29=SURFACE_STYLE_USAGE(.BOTH.,#31);
#30=SURFACE_SIDE_STYLE('',(#32));
#31=SURFACE_SIDE_STYLE('',(#33));
#32=SURFACE_STYLE_FILL_AREA(#34);
#33=SURFACE_STYLE_FILL_AREA(#35);
#34=FILL_AREA_STYLE('',(#36));
#35=FILL_AREA_STYLE('',(#37));
#36=FILL_AREA_STYLE_COLOUR('',#431);
#37=FILL_AREA_STYLE_COLOUR('',#432);
#38=MANIFOLD_SOLID_BREP('NOCUT',#40);
#39=MANIFOLD_SOLID_BREP('CUT',#41);
#40=CLOSED_SHELL('',(#105,#106,#107,#108,#109,#110,#111,#112,#113,#114,
#115,#116,#117,#118,#119,#120,#121,#122,#123,#124,#125,#126,#127,#128,#129,
#130,#131));
#41=CLOSED_SHELL('',(#132));
#42=CONICAL_SURFACE('',#462,92.,74.9999999999999);
#43=CONICAL_SURFACE('',#472,92.,74.9999999999999);
#44=CYLINDRICAL_SURFACE('',#458,25.4);
#45=CYLINDRICAL_SURFACE('',#459,25.4);
#46=CYLINDRICAL_SURFACE('',#460,123.45);
#47=CYLINDRICAL_SURFACE('',#469,39.1);
#48=CYLINDRICAL_SURFACE('',#479,39.1);
#49=FACE_OUTER_BOUND('',#196,.T.);
#50=FACE_OUTER_BOUND('',#197,.T.);
#51=FACE_OUTER_BOUND('',#224,.T.);
#52=FACE_OUTER_BOUND('',#225,.T.);
#53=FACE_OUTER_BOUND('',#226,.T.);
#54=FACE_OUTER_BOUND('',#227,.T.);
#55=FACE_OUTER_BOUND('',#228,.T.);
#56=FACE_OUTER_BOUND('',#229,.T.);
#57=LINE('',#641,#77);
#58=LINE('',#644,#78);
#59=LINE('',#646,#79);
#60=LINE('',#650,#80);
#61=LINE('',#652,#81);
#62=LINE('',#654,#82);
#63=LINE('',#660,#83);
#64=LINE('',#665,#84);
#65=LINE('',#667,#85);
#66=LINE('',#669,#86);
#67=LINE('',#673,#87);
#68=LINE('',#675,#88);
#69=LINE('',#677,#89);
#70=LINE('',#678,#90);
#71=LINE('',#680,#91);
#72=LINE('',#681,#92);
#73=LINE('',#716,#93);
#74=LINE('',#717,#94);
#75=LINE('',#721,#95);
#76=LINE('',#722,#96);
#77=VECTOR('',#520,1.);
#78=VECTOR('',#521,1.);
#79=VECTOR('',#522,1.);
#80=VECTOR('',#525,1.);
#81=VECTOR('',#526,1.);
#82=VECTOR('',#527,1.);
#83=VECTOR('',#534,1.);
#84=VECTOR('',#537,1.);
#85=VECTOR('',#538,1.);
#86=VECTOR('',#539,1.);
#87=VECTOR('',#542,1.);
#88=VECTOR('',#543,1.);
#89=VECTOR('',#546,1.);
#90=VECTOR('',#547,1.);
#91=VECTOR('',#550,1.);
#92=VECTOR('',#551,1.);
#93=VECTOR('',#600,1.);
#94=VECTOR('',#601,1.);
#95=VECTOR('',#608,1.);
#96=VECTOR('',#609,1.);
#97=TOROIDAL_SURFACE('',#447,119.45,4.);
#98=TOROIDAL_SURFACE('',#449,119.45,4.);
#99=TOROIDAL_SURFACE('',#466,91.3348703807947,0.8);
#100=TOROIDAL_SURFACE('',#470,41.1,2.);
#101=TOROIDAL_SURFACE('',#476,91.3348703807947,0.8);
#102=TOROIDAL_SURFACE('',#480,41.1,2.);
#103=TOROIDAL_SURFACE('',#481,38.1,1.);
#104=TOROIDAL_SURFACE('',#482,38.1,1.);
#105=ADVANCED_FACE('',(#145,#146),#133,.F.);
#106=ADVANCED_FACE('',(#147,#148),#134,.F.);
#107=ADVANCED_FACE('',(#149,#150),#97,.T.);
#108=ADVANCED_FACE('',(#151,#152),#98,.T.);
#109=ADVANCED_FACE('',(#153,#154),#135,.F.);
#110=ADVANCED_FACE('',(#155,#156),#136,.F.);
#111=ADVANCED_FACE('',(#49),#44,.F.);
#112=ADVANCED_FACE('',(#50),#45,.F.);
#113=ADVANCED_FACE('',(#157,#158),#46,.T.);
#114=ADVANCED_FACE('',(#159,#160),#42,.F.);
#115=ADVANCED_FACE('',(#161,#162),#137,.T.);
#116=ADVANCED_FACE('',(#163,#164),#99,.F.);
#117=ADVANCED_FACE('',(#165,#166),#47,.T.);
#118=ADVANCED_FACE('',(#167,#168),#100,.F.);
#119=ADVANCED_FACE('',(#169,#170),#43,.F.);
#120=ADVANCED_FACE('',(#171,#172),#138,.T.);
#121=ADVANCED_FACE('',(#173,#174),#101,.F.);
#122=ADVANCED_FACE('',(#175,#176),#48,.T.);
#123=ADVANCED_FACE('',(#177,#178),#102,.F.);
#124=ADVANCED_FACE('',(#179,#180),#103,.T.);
#125=ADVANCED_FACE('',(#181,#182),#104,.T.);
#126=ADVANCED_FACE('',(#51),#139,.T.);
#127=ADVANCED_FACE('',(#52),#140,.T.);
#128=ADVANCED_FACE('',(#53),#141,.T.);
#129=ADVANCED_FACE('',(#54),#142,.T.);
#130=ADVANCED_FACE('',(#55),#143,.T.);
#131=ADVANCED_FACE('',(#56),#144,.T.);
#132=ADVANCED_FACE('',(#183),#25,.T.);
#133=PLANE('',#442);
#134=PLANE('',#445);
#135=PLANE('',#453);
#136=PLANE('',#457);
#137=PLANE('',#465);
#138=PLANE('',#475);
#139=PLANE('',#483);
#140=PLANE('',#484);
#141=PLANE('',#485);
#142=PLANE('',#486);
#143=PLANE('',#487);
#144=PLANE('',#488);
#145=FACE_BOUND('',#184,.T.);
#146=FACE_BOUND('',#185,.T.);
#147=FACE_BOUND('',#186,.T.);
#148=FACE_BOUND('',#187,.T.);
#149=FACE_BOUND('',#188,.T.);
#150=FACE_BOUND('',#189,.T.);
#151=FACE_BOUND('',#190,.T.);
#152=FACE_BOUND('',#191,.T.);
#153=FACE_BOUND('',#192,.T.);
#154=FACE_BOUND('',#193,.T.);
#155=FACE_BOUND('',#194,.T.);
#156=FACE_BOUND('',#195,.T.);
#157=FACE_BOUND('',#198,.T.);
#158=FACE_BOUND('',#199,.T.);
#159=FACE_BOUND('',#200,.T.);
#160=FACE_BOUND('',#201,.T.);
#161=FACE_BOUND('',#202,.T.);
#162=FACE_BOUND('',#203,.T.);
#163=FACE_BOUND('',#204,.T.);
#164=FACE_BOUND('',#205,.T.);
#165=FACE_BOUND('',#206,.T.);
#166=FACE_BOUND('',#207,.T.);
#167=FACE_BOUND('',#208,.T.);
#168=FACE_BOUND('',#209,.T.);
#169=FACE_BOUND('',#210,.T.);
#170=FACE_BOUND('',#211,.T.);
#171=FACE_BOUND('',#212,.T.);
#172=FACE_BOUND('',#213,.T.);
#173=FACE_BOUND('',#214,.T.);
#174=FACE_BOUND('',#215,.T.);
#175=FACE_BOUND('',#216,.T.);
#176=FACE_BOUND('',#217,.T.);
#177=FACE_BOUND('',#218,.T.);
#178=FACE_BOUND('',#219,.T.);
#179=FACE_BOUND('',#220,.T.);
#180=FACE_BOUND('',#221,.T.);
#181=FACE_BOUND('',#222,.T.);
#182=FACE_BOUND('',#223,.T.);
#183=FACE_BOUND('',#27,.T.);
#184=EDGE_LOOP('',(#230));
#185=EDGE_LOOP('',(#231));
#186=EDGE_LOOP('',(#232));
#187=EDGE_LOOP('',(#233));
#188=EDGE_LOOP('',(#234));
#189=EDGE_LOOP('',(#235));
#190=EDGE_LOOP('',(#236));
#191=EDGE_LOOP('',(#237));
#192=EDGE_LOOP('',(#238));
#193=EDGE_LOOP('',(#239,#240,#241,#242,#243,#244,#245,#246));
#194=EDGE_LOOP('',(#247));
#195=EDGE_LOOP('',(#248,#249,#250,#251,#252,#253,#254,#255));
#196=EDGE_LOOP('',(#256,#257,#258,#259));
#197=EDGE_LOOP('',(#260,#261,#262,#263));
#198=EDGE_LOOP('',(#264));
#199=EDGE_LOOP('',(#265));
#200=EDGE_LOOP('',(#266));
#201=EDGE_LOOP('',(#267));
#202=EDGE_LOOP('',(#268));
#203=EDGE_LOOP('',(#269));
#204=EDGE_LOOP('',(#270));
#205=EDGE_LOOP('',(#271));
#206=EDGE_LOOP('',(#272));
#207=EDGE_LOOP('',(#273));
#208=EDGE_LOOP('',(#274));
#209=EDGE_LOOP('',(#275));
#210=EDGE_LOOP('',(#276));
#211=EDGE_LOOP('',(#277));
#212=EDGE_LOOP('',(#278));
#213=EDGE_LOOP('',(#279));
#214=EDGE_LOOP('',(#280));
#215=EDGE_LOOP('',(#281));
#216=EDGE_LOOP('',(#282));
#217=EDGE_LOOP('',(#283));
#218=EDGE_LOOP('',(#284));
#219=EDGE_LOOP('',(#285));
#220=EDGE_LOOP('',(#286));
#221=EDGE_LOOP('',(#287));
#222=EDGE_LOOP('',(#288));
#223=EDGE_LOOP('',(#289));
#224=EDGE_LOOP('',(#290,#291,#292,#293));
#225=EDGE_LOOP('',(#294,#295,#296,#297));
#226=EDGE_LOOP('',(#298,#299,#300,#301));
#227=EDGE_LOOP('',(#302,#303,#304,#305));
#228=EDGE_LOOP('',(#306,#307,#308,#309));
#229=EDGE_LOOP('',(#310,#311,#312,#313));
#230=ORIENTED_EDGE('',*,*,#349,.T.);
#231=ORIENTED_EDGE('',*,*,#350,.F.);
#232=ORIENTED_EDGE('',*,*,#351,.T.);
#233=ORIENTED_EDGE('',*,*,#352,.F.);
#234=ORIENTED_EDGE('',*,*,#353,.F.);
#235=ORIENTED_EDGE('',*,*,#349,.F.);
#236=ORIENTED_EDGE('',*,*,#351,.F.);
#237=ORIENTED_EDGE('',*,*,#354,.F.);
#238=ORIENTED_EDGE('',*,*,#355,.T.);
#239=ORIENTED_EDGE('',*,*,#356,.F.);
#240=ORIENTED_EDGE('',*,*,#357,.F.);
#241=ORIENTED_EDGE('',*,*,#358,.F.);
#242=ORIENTED_EDGE('',*,*,#359,.T.);
#243=ORIENTED_EDGE('',*,*,#360,.F.);
#244=ORIENTED_EDGE('',*,*,#361,.F.);
#245=ORIENTED_EDGE('',*,*,#362,.F.);
#246=ORIENTED_EDGE('',*,*,#363,.T.);
#247=ORIENTED_EDGE('',*,*,#364,.T.);
#248=ORIENTED_EDGE('',*,*,#365,.F.);
#249=ORIENTED_EDGE('',*,*,#366,.T.);
#250=ORIENTED_EDGE('',*,*,#367,.F.);
#251=ORIENTED_EDGE('',*,*,#368,.F.);
#252=ORIENTED_EDGE('',*,*,#369,.F.);
#253=ORIENTED_EDGE('',*,*,#370,.T.);
#254=ORIENTED_EDGE('',*,*,#371,.F.);
#255=ORIENTED_EDGE('',*,*,#372,.F.);
#256=ORIENTED_EDGE('',*,*,#373,.F.);
#257=ORIENTED_EDGE('',*,*,#363,.F.);
#258=ORIENTED_EDGE('',*,*,#374,.F.);
#259=ORIENTED_EDGE('',*,*,#366,.F.);
#260=ORIENTED_EDGE('',*,*,#375,.F.);
#261=ORIENTED_EDGE('',*,*,#370,.F.);
#262=ORIENTED_EDGE('',*,*,#376,.F.);
#263=ORIENTED_EDGE('',*,*,#359,.F.);
#264=ORIENTED_EDGE('',*,*,#353,.T.);
#265=ORIENTED_EDGE('',*,*,#354,.T.);
#266=ORIENTED_EDGE('',*,*,#377,.T.);
#267=ORIENTED_EDGE('',*,*,#352,.T.);
#268=ORIENTED_EDGE('',*,*,#378,.T.);
#269=ORIENTED_EDGE('',*,*,#379,.T.);
#270=ORIENTED_EDGE('',*,*,#377,.F.);
#271=ORIENTED_EDGE('',*,*,#379,.F.);
#272=ORIENTED_EDGE('',*,*,#380,.T.);
#273=ORIENTED_EDGE('',*,*,#381,.T.);
#274=ORIENTED_EDGE('',*,*,#381,.F.);
#275=ORIENTED_EDGE('',*,*,#378,.F.);
#276=ORIENTED_EDGE('',*,*,#382,.T.);
#277=ORIENTED_EDGE('',*,*,#350,.T.);
#278=ORIENTED_EDGE('',*,*,#383,.T.);
#279=ORIENTED_EDGE('',*,*,#384,.T.);
#280=ORIENTED_EDGE('',*,*,#382,.F.);
#281=ORIENTED_EDGE('',*,*,#384,.F.);
#282=ORIENTED_EDGE('',*,*,#385,.T.);
#283=ORIENTED_EDGE('',*,*,#386,.T.);
#284=ORIENTED_EDGE('',*,*,#386,.F.);
#285=ORIENTED_EDGE('',*,*,#383,.F.);
#286=ORIENTED_EDGE('',*,*,#364,.F.);
#287=ORIENTED_EDGE('',*,*,#385,.F.);
#288=ORIENTED_EDGE('',*,*,#380,.F.);
#289=ORIENTED_EDGE('',*,*,#355,.F.);
#290=ORIENTED_EDGE('',*,*,#361,.T.);
#291=ORIENTED_EDGE('',*,*,#387,.T.);
#292=ORIENTED_EDGE('',*,*,#368,.T.);
#293=ORIENTED_EDGE('',*,*,#388,.F.);
#294=ORIENTED_EDGE('',*,*,#369,.T.);
#295=ORIENTED_EDGE('',*,*,#387,.F.);
#296=ORIENTED_EDGE('',*,*,#360,.T.);
#297=ORIENTED_EDGE('',*,*,#376,.T.);
#298=ORIENTED_EDGE('',*,*,#367,.T.);
#299=ORIENTED_EDGE('',*,*,#374,.T.);
#300=ORIENTED_EDGE('',*,*,#362,.T.);
#301=ORIENTED_EDGE('',*,*,#388,.T.);
#302=ORIENTED_EDGE('',*,*,#357,.T.);
#303=ORIENTED_EDGE('',*,*,#389,.T.);
#304=ORIENTED_EDGE('',*,*,#372,.T.);
#305=ORIENTED_EDGE('',*,*,#390,.F.);
#306=ORIENTED_EDGE('',*,*,#365,.T.);
#307=ORIENTED_EDGE('',*,*,#389,.F.);
#308=ORIENTED_EDGE('',*,*,#356,.T.);
#309=ORIENTED_EDGE('',*,*,#373,.T.);
#310=ORIENTED_EDGE('',*,*,#371,.T.);
#311=ORIENTED_EDGE('',*,*,#375,.T.);
#312=ORIENTED_EDGE('',*,*,#358,.T.);
#313=ORIENTED_EDGE('',*,*,#390,.T.);
#314=VERTEX_POINT('',#624);
#315=VERTEX_POINT('',#626);
#316=VERTEX_POINT('',#629);
#317=VERTEX_POINT('',#631);
#318=VERTEX_POINT('',#634);
#319=VERTEX_POINT('',#637);
#320=VERTEX_POINT('',#640);
#321=VERTEX_POINT('',#642);
#322=VERTEX_POINT('',#643);
#323=VERTEX_POINT('',#645);
#324=VERTEX_POINT('',#647);
#325=VERTEX_POINT('',#649);
#326=VERTEX_POINT('',#651);
#327=VERTEX_POINT('',#653);
#328=VERTEX_POINT('',#655);
#329=VERTEX_POINT('',#659);
#330=VERTEX_POINT('',#661);
#331=VERTEX_POINT('',#662);
#332=VERTEX_POINT('',#664);
#333=VERTEX_POINT('',#666);
#334=VERTEX_POINT('',#668);
#335=VERTEX_POINT('',#670);
#336=VERTEX_POINT('',#672);
#337=VERTEX_POINT('',#674);
#338=VERTEX_POINT('',#685);
#339=VERTEX_POINT('',#688);
#340=VERTEX_POINT('',#690);
#341=VERTEX_POINT('',#694);
#342=VERTEX_POINT('',#696);
#343=VERTEX_POINT('',#700);
#344=VERTEX_POINT('',#703);
#345=VERTEX_POINT('',#705);
#346=VERTEX_POINT('',#709);
#347=VERTEX_POINT('',#711);
#348=VERTEX_POINT('',#726);
#349=EDGE_CURVE('',#314,#314,#391,.T.);
#350=EDGE_CURVE('',#315,#315,#392,.T.);
#351=EDGE_CURVE('',#316,#316,#393,.T.);
#352=EDGE_CURVE('',#317,#317,#394,.T.);
#353=EDGE_CURVE('',#318,#318,#395,.T.);
#354=EDGE_CURVE('',#319,#319,#396,.T.);
#355=EDGE_CURVE('',#320,#320,#397,.T.);
#356=EDGE_CURVE('',#321,#322,#57,.T.);
#357=EDGE_CURVE('',#323,#321,#58,.T.);
#358=EDGE_CURVE('',#324,#323,#59,.T.);
#359=EDGE_CURVE('',#324,#325,#398,.T.);
#360=EDGE_CURVE('',#326,#325,#60,.T.);
#361=EDGE_CURVE('',#327,#326,#61,.T.);
#362=EDGE_CURVE('',#328,#327,#62,.T.);
#363=EDGE_CURVE('',#328,#322,#399,.T.);
#364=EDGE_CURVE('',#329,#329,#400,.T.);
#365=EDGE_CURVE('',#330,#331,#63,.T.);
#366=EDGE_CURVE('',#330,#332,#401,.T.);
#367=EDGE_CURVE('',#333,#332,#64,.T.);
#368=EDGE_CURVE('',#334,#333,#65,.T.);
#369=EDGE_CURVE('',#335,#334,#66,.T.);
#370=EDGE_CURVE('',#335,#336,#402,.T.);
#371=EDGE_CURVE('',#337,#336,#67,.T.);
#372=EDGE_CURVE('',#331,#337,#68,.T.);
#373=EDGE_CURVE('',#322,#330,#69,.T.);
#374=EDGE_CURVE('',#332,#328,#70,.T.);
#375=EDGE_CURVE('',#336,#324,#71,.T.);
#376=EDGE_CURVE('',#325,#335,#72,.T.);
#377=EDGE_CURVE('',#338,#338,#403,.T.);
#378=EDGE_CURVE('',#339,#339,#404,.T.);
#379=EDGE_CURVE('',#340,#340,#405,.T.);
#380=EDGE_CURVE('',#341,#341,#406,.T.);
#381=EDGE_CURVE('',#342,#342,#407,.T.);
#382=EDGE_CURVE('',#343,#343,#408,.T.);
#383=EDGE_CURVE('',#344,#344,#409,.T.);
#384=EDGE_CURVE('',#345,#345,#410,.T.);
#385=EDGE_CURVE('',#346,#346,#411,.T.);
#386=EDGE_CURVE('',#347,#347,#412,.T.);
#387=EDGE_CURVE('',#326,#334,#73,.T.);
#388=EDGE_CURVE('',#327,#333,#74,.T.);
#389=EDGE_CURVE('',#321,#331,#75,.T.);
#390=EDGE_CURVE('',#323,#337,#76,.T.);
#391=CIRCLE('',#440,119.45);
#392=CIRCLE('',#441,92.0000000000002);
#393=CIRCLE('',#443,119.45);
#394=CIRCLE('',#444,92.0000000000002);
#395=CIRCLE('',#446,123.45);
#396=CIRCLE('',#448,123.45);
#397=CIRCLE('',#450,38.1);
#398=CIRCLE('',#451,25.4);
#399=CIRCLE('',#452,25.4);
#400=CIRCLE('',#454,38.1);
#401=CIRCLE('',#455,25.4);
#402=CIRCLE('',#456,25.4);
#403=CIRCLE('',#461,91.5419256168767);
#404=CIRCLE('',#463,41.1);
#405=CIRCLE('',#464,91.3348703807947);
#406=CIRCLE('',#467,39.1);
#407=CIRCLE('',#468,39.1);
#408=CIRCLE('',#471,91.5419256168767);
#409=CIRCLE('',#473,41.1);
#410=CIRCLE('',#474,91.3348703807947);
#411=CIRCLE('',#477,39.1);
#412=CIRCLE('',#478,39.1);
#413=CIRCLE('',#489,8.);
#414=PRESENTATION_LAYER_ASSIGNMENT('1','Layer 1',(#437,#438,#439));
#415=PRESENTATION_LAYER_ASSIGNMENT('2','Layer 2',(#38));
#416=PRESENTATION_LAYER_ASSIGNMENT('3','Layer 3',(#39));
#417=STYLED_ITEM('',(#422),#437);
#418=STYLED_ITEM('',(#423),#438);
#419=STYLED_ITEM('',(#424),#439);
#420=STYLED_ITEM('',(#425),#38);
#421=STYLED_ITEM('',(#426),#39);
#422=PRESENTATION_STYLE_ASSIGNMENT((#427));
#423=PRESENTATION_STYLE_ASSIGNMENT((#428));
#424=PRESENTATION_STYLE_ASSIGNMENT((#429));
#425=PRESENTATION_STYLE_ASSIGNMENT((#28));
#426=PRESENTATION_STYLE_ASSIGNMENT((#29));
#427=CURVE_STYLE('',#433,POSITIVE_LENGTH_MEASURE(0.18),#430);
#428=CURVE_STYLE('',#434,POSITIVE_LENGTH_MEASURE(0.18),#430);
#429=CURVE_STYLE('',#435,POSITIVE_LENGTH_MEASURE(0.18),#430);
#430=COLOUR_RGB('Strong Stone',0.576470588235294,0.54508278019379,0.392156862745098);
#431=COLOUR_RGB('Medium Gray',0.490196078431373,0.490196078431373,0.490196078431373);
#432=COLOUR_RGB('Light Gray',0.8,0.8,0.8);
#433=DRAUGHTING_PRE_DEFINED_CURVE_FONT('continuous');
#434=DRAUGHTING_PRE_DEFINED_CURVE_FONT('continuous');
#435=DRAUGHTING_PRE_DEFINED_CURVE_FONT('continuous');
#436=AXIS2_PLACEMENT_3D('',#619,#490,#491);
#437=AXIS2_PLACEMENT_3D('PCS',#620,#492,#493);
#438=AXIS2_PLACEMENT_3D('MCS',#621,#494,#495);
#439=AXIS2_PLACEMENT_3D('CIP',#622,#496,#497);
#440=AXIS2_PLACEMENT_3D('',#623,#498,#499);
#441=AXIS2_PLACEMENT_3D('',#625,#500,#501);
#442=AXIS2_PLACEMENT_3D('',#627,#502,#503);
#443=AXIS2_PLACEMENT_3D('',#628,#504,#505);
#444=AXIS2_PLACEMENT_3D('',#630,#506,#507);
#445=AXIS2_PLACEMENT_3D('',#632,#508,#509);
#446=AXIS2_PLACEMENT_3D('',#633,#510,#511);
#447=AXIS2_PLACEMENT_3D('',#635,#512,#513);
#448=AXIS2_PLACEMENT_3D('',#636,#514,#515);
#449=AXIS2_PLACEMENT_3D('',#638,#516,#517);
#450=AXIS2_PLACEMENT_3D('',#639,#518,#519);
#451=AXIS2_PLACEMENT_3D('',#648,#523,#524);
#452=AXIS2_PLACEMENT_3D('',#656,#528,#529);
#453=AXIS2_PLACEMENT_3D('',#657,#530,#531);
#454=AXIS2_PLACEMENT_3D('',#658,#532,#533);
#455=AXIS2_PLACEMENT_3D('',#663,#535,#536);
#456=AXIS2_PLACEMENT_3D('',#671,#540,#541);
#457=AXIS2_PLACEMENT_3D('',#676,#544,#545);
#458=AXIS2_PLACEMENT_3D('',#679,#548,#549);
#459=AXIS2_PLACEMENT_3D('',#682,#552,#553);
#460=AXIS2_PLACEMENT_3D('',#683,#554,#555);
#461=AXIS2_PLACEMENT_3D('',#684,#556,#557);
#462=AXIS2_PLACEMENT_3D('',#686,#558,#559);
#463=AXIS2_PLACEMENT_3D('',#687,#560,#561);
#464=AXIS2_PLACEMENT_3D('',#689,#562,#563);
#465=AXIS2_PLACEMENT_3D('',#691,#564,#565);
#466=AXIS2_PLACEMENT_3D('',#692,#566,#567);
#467=AXIS2_PLACEMENT_3D('',#693,#568,#569);
#468=AXIS2_PLACEMENT_3D('',#695,#570,#571);
#469=AXIS2_PLACEMENT_3D('',#697,#572,#573);
#470=AXIS2_PLACEMENT_3D('',#698,#574,#575);
#471=AXIS2_PLACEMENT_3D('',#699,#576,#577);
#472=AXIS2_PLACEMENT_3D('',#701,#578,#579);
#473=AXIS2_PLACEMENT_3D('',#702,#580,#581);
#474=AXIS2_PLACEMENT_3D('',#704,#582,#583);
#475=AXIS2_PLACEMENT_3D('',#706,#584,#585);
#476=AXIS2_PLACEMENT_3D('',#707,#586,#587);
#477=AXIS2_PLACEMENT_3D('',#708,#588,#589);
#478=AXIS2_PLACEMENT_3D('',#710,#590,#591);
#479=AXIS2_PLACEMENT_3D('',#712,#592,#593);
#480=AXIS2_PLACEMENT_3D('',#713,#594,#595);
#481=AXIS2_PLACEMENT_3D('',#714,#596,#597);
#482=AXIS2_PLACEMENT_3D('',#715,#598,#599);
#483=AXIS2_PLACEMENT_3D('',#718,#602,#603);
#484=AXIS2_PLACEMENT_3D('',#719,#604,#605);
#485=AXIS2_PLACEMENT_3D('',#720,#606,#607);
#486=AXIS2_PLACEMENT_3D('',#723,#610,#611);
#487=AXIS2_PLACEMENT_3D('',#724,#612,#613);
#488=AXIS2_PLACEMENT_3D('',#725,#614,#615);
#489=AXIS2_PLACEMENT_3D('',#727,#616,#617);
#490=DIRECTION('',(0.,0.,1.));
#491=DIRECTION('',(1.,0.,0.));
#492=DIRECTION('',(0.,0.,1.));
#493=DIRECTION('',(1.,0.,0.));
#494=DIRECTION('',(0.,0.,1.));
#495=DIRECTION('',(1.,0.,0.));
#496=DIRECTION('',(0.,0.,1.));
#497=DIRECTION('',(1.,0.,0.));
#498=DIRECTION('',(0.,0.,-1.));
#499=DIRECTION('',(1.,0.,0.));
#500=DIRECTION('',(0.,0.,-1.));
#501=DIRECTION('',(1.,0.,0.));
#502=DIRECTION('',(0.,0.,1.));
#503=DIRECTION('',(-1.,0.,0.));
#504=DIRECTION('',(0.,0.,1.));
#505=DIRECTION('',(-1.,0.,0.));
#506=DIRECTION('',(0.,0.,1.));
#507=DIRECTION('',(-1.,0.,0.));
#508=DIRECTION('',(0.,0.,-1.));
#509=DIRECTION('',(1.,0.,0.));
#510=DIRECTION('',(0.,0.,1.));
#511=DIRECTION('',(1.,0.,0.));
#512=DIRECTION('',(0.,0.,1.));
#513=DIRECTION('',(-1.,0.,0.));
#514=DIRECTION('',(0.,0.,-1.));
#515=DIRECTION('',(-1.,0.,0.));
#516=DIRECTION('',(0.,0.,-1.));
#517=DIRECTION('',(1.,0.,0.));
#518=DIRECTION('',(0.,0.,1.));
#519=DIRECTION('',(-1.,0.,0.));
#520=DIRECTION('',(0.98078528040323,-0.195090322016131,0.));
#521=DIRECTION('',(-0.195090322016131,-0.98078528040323,0.));
#522=DIRECTION('',(-0.98078528040323,0.195090322016131,0.));
#523=DIRECTION('',(0.,0.,-1.));
#524=DIRECTION('',(-1.,0.,0.));
#525=DIRECTION('',(-1.,1.13380619344889E-16,0.));
#526=DIRECTION('',(0.,1.,0.));
#527=DIRECTION('',(1.,1.13380619344889E-16,0.));
#528=DIRECTION('',(0.,0.,-1.));
#529=DIRECTION('',(-1.,0.,0.));
#530=DIRECTION('',(0.,0.,-1.));
#531=DIRECTION('',(1.,0.,0.));
#532=DIRECTION('',(0.,0.,-1.));
#533=DIRECTION('',(1.,0.,0.));
#534=DIRECTION('',(-0.98078528040323,0.195090322016131,0.));
#535=DIRECTION('',(0.,0.,1.));
#536=DIRECTION('',(1.,0.,0.));
#537=DIRECTION('',(-1.,-1.13380619344889E-16,0.));
#538=DIRECTION('',(0.,-1.,0.));
#539=DIRECTION('',(1.,-1.13380619344889E-16,0.));
#540=DIRECTION('',(0.,0.,1.));
#541=DIRECTION('',(1.,0.,0.));
#542=DIRECTION('',(0.98078528040323,-0.195090322016131,0.));
#543=DIRECTION('',(0.195090322016131,0.98078528040323,0.));
#544=DIRECTION('',(0.,0.,1.));
#545=DIRECTION('',(-1.,0.,0.));
#546=DIRECTION('',(0.,0.,-1.));
#547=DIRECTION('',(0.,0.,1.));
#548=DIRECTION('',(0.,0.,-1.));
#549=DIRECTION('',(0.,-1.,0.));
#550=DIRECTION('',(0.,0.,1.));
#551=DIRECTION('',(0.,0.,-1.));
#552=DIRECTION('',(0.,0.,-1.));
#553=DIRECTION('',(0.,-1.,0.));
#554=DIRECTION('',(0.,0.,1.));
#555=DIRECTION('',(-1.,0.,0.));
#556=DIRECTION('',(0.,0.,-1.));
#557=DIRECTION('',(-1.,0.,0.));
#558=DIRECTION('',(0.,0.,1.));
#559=DIRECTION('',(-1.,0.,1.13408762283134E-17));
#560=DIRECTION('',(0.,0.,-1.));
#561=DIRECTION('',(1.,0.,0.));
#562=DIRECTION('',(0.,0.,1.));
#563=DIRECTION('',(1.,0.,0.));
#564=DIRECTION('',(0.,0.,1.));
#565=DIRECTION('',(-1.,0.,0.));
#566=DIRECTION('',(0.,0.,1.));
#567=DIRECTION('',(-1.,0.,0.));
#568=DIRECTION('',(0.,0.,-1.));
#569=DIRECTION('',(-1.,0.,0.));
#570=DIRECTION('',(0.,0.,1.));
#571=DIRECTION('',(1.,0.,0.));
#572=DIRECTION('',(0.,0.,1.));
#573=DIRECTION('',(-1.,0.,0.));
#574=DIRECTION('',(0.,0.,1.));
#575=DIRECTION('',(-1.,0.,0.));
#576=DIRECTION('',(0.,0.,1.));
#577=DIRECTION('',(1.,0.,0.));
#578=DIRECTION('',(0.,0.,-1.));
#579=DIRECTION('',(1.,0.,-1.45163215722411E-17));
#580=DIRECTION('',(0.,0.,1.));
#581=DIRECTION('',(-1.,0.,0.));
#582=DIRECTION('',(0.,0.,-1.));
#583=DIRECTION('',(-1.,0.,0.));
#584=DIRECTION('',(0.,0.,-1.));
#585=DIRECTION('',(1.,0.,0.));
#586=DIRECTION('',(0.,0.,-1.));
#587=DIRECTION('',(1.,0.,0.));
#588=DIRECTION('',(0.,0.,1.));
#589=DIRECTION('',(1.,0.,0.));
#590=DIRECTION('',(0.,0.,-1.));
#591=DIRECTION('',(-1.,0.,0.));
#592=DIRECTION('',(0.,0.,1.));
#593=DIRECTION('',(-1.,0.,0.));
#594=DIRECTION('',(0.,0.,-1.));
#595=DIRECTION('',(1.,0.,0.));
#596=DIRECTION('',(0.,0.,1.));
#597=DIRECTION('',(-1.,0.,0.));
#598=DIRECTION('',(0.,0.,-1.));
#599=DIRECTION('',(1.,0.,0.));
#600=DIRECTION('',(0.,0.,-1.));
#601=DIRECTION('',(0.,0.,-1.));
#602=DIRECTION('',(-1.,0.,0.));
#603=DIRECTION('',(0.,0.,1.));
#604=DIRECTION('',(-1.13380619344889E-16,-1.,0.));
#605=DIRECTION('',(-1.,1.13624387676481E-16,0.));
#606=DIRECTION('',(-1.13380619344889E-16,1.,0.));
#607=DIRECTION('',(1.,1.13624387676481E-16,0.));
#608=DIRECTION('',(0.,0.,-1.));
#609=DIRECTION('',(0.,0.,-1.));
#610=DIRECTION('',(0.98078528040323,-0.195090322016131,0.));
#611=DIRECTION('',(0.,0.,1.));
#612=DIRECTION('',(0.195090322016131,0.98078528040323,0.));
#613=DIRECTION('',(0.98078528040323,-0.195090322016131,0.));
#614=DIRECTION('',(-0.195090322016131,-0.98078528040323,0.));
#615=DIRECTION('',(-0.98078528040323,0.195090322016131,0.));
#616=DIRECTION('',(-0.121575707730667,0.990154680986309,0.0693761847516044));
#617=DIRECTION('',(-0.992570352871544,-0.121617873440269,-0.00363145429883812));
#618=DIRECTION('',(0.,0.,-1.));
#619=CARTESIAN_POINT('',(0.,0.,0.));
#620=CARTESIAN_POINT('',(0.,0.,0.));
#621=CARTESIAN_POINT('',(0.,0.,0.));
#622=CARTESIAN_POINT('',(0.,0.,-17.5));
#623=CARTESIAN_POINT('',(0.,0.,-15.7750000000001));
#624=CARTESIAN_POINT('',(119.45,0.,-15.7750000000001));
#625=CARTESIAN_POINT('',(0.,0.,-15.7750000000001));
#626=CARTESIAN_POINT('',(92.0000000000002,0.,-15.7750000000001));
#627=CARTESIAN_POINT('',(39.1,0.,-15.7750000000001));
#628=CARTESIAN_POINT('',(0.,0.,-3.27499999999991));
#629=CARTESIAN_POINT('',(-119.45,0.,-3.27499999999991));
#630=CARTESIAN_POINT('',(0.,0.,-3.27499999999991));
#631=CARTESIAN_POINT('',(-92.0000000000002,0.,-3.27499999999991));
#632=CARTESIAN_POINT('',(123.45,0.,-3.27499999999991));
#633=CARTESIAN_POINT('',(0.,0.,-11.7750000000001));
#634=CARTESIAN_POINT('',(123.45,0.,-11.7750000000001));
#635=CARTESIAN_POINT('',(0.,0.,-11.7750000000001));
#636=CARTESIAN_POINT('',(0.,0.,-7.27499999999991));
#637=CARTESIAN_POINT('',(-123.45,0.,-7.27499999999991));
#638=CARTESIAN_POINT('',(0.,0.,-7.27499999999991));
#639=CARTESIAN_POINT('',(0.,0.,0.));
#640=CARTESIAN_POINT('',(-38.1,0.,0.));
#641=CARTESIAN_POINT('',(36.3730213157932,-13.7094476332981,0.));
#642=CARTESIAN_POINT('',(-31.2508531251413,-0.258222676866906,0.));
#643=CARTESIAN_POINT('',(-25.3597116580674,-1.43004357265105,0.));
#644=CARTESIAN_POINT('',(-28.5238744409345,13.4512249564312,0.));
#645=CARTESIAN_POINT('',(-28.7732060355364,12.1977503842541,0.));
#646=CARTESIAN_POINT('',(38.8506684053981,-1.25347457217708,0.));
#647=CARTESIAN_POINT('',(-22.8820645684625,11.02592948847,0.));
#648=CARTESIAN_POINT('',(0.,0.,0.));
#649=CARTESIAN_POINT('',(24.5934442484171,6.35,0.));
#650=CARTESIAN_POINT('',(39.1,6.35,0.));
#651=CARTESIAN_POINT('',(30.6,6.35,0.));
#652=CARTESIAN_POINT('',(30.6,0.,0.));
#653=CARTESIAN_POINT('',(30.6,-6.35,0.));
#654=CARTESIAN_POINT('',(39.1,-6.35,0.));
#655=CARTESIAN_POINT('',(24.5934442484171,-6.35,0.));
#656=CARTESIAN_POINT('',(0.,0.,0.));
#657=CARTESIAN_POINT('',(39.1,0.,0.));
#658=CARTESIAN_POINT('',(0.,0.,-19.05));
#659=CARTESIAN_POINT('',(38.1,0.,-19.05));
#660=CARTESIAN_POINT('',(-1.23882354480243,-6.22798653056051,-19.05));
#661=CARTESIAN_POINT('',(-25.3597116580674,-1.43004357265106,-19.05));
#662=CARTESIAN_POINT('',(-31.2508531251413,-0.258222676866906,-19.05));
#663=CARTESIAN_POINT('',(0.,0.,-19.05));
#664=CARTESIAN_POINT('',(24.5934442484171,-6.35,-19.05));
#665=CARTESIAN_POINT('',(7.19966932840048E-16,-6.35,-19.05));
#666=CARTESIAN_POINT('',(30.6,-6.35,-19.05));
#667=CARTESIAN_POINT('',(30.6,0.,-19.05));
#668=CARTESIAN_POINT('',(30.6,6.35,-19.05));
#669=CARTESIAN_POINT('',(7.19966932840048E-16,6.35,-19.05));
#670=CARTESIAN_POINT('',(24.5934442484171,6.35,-19.05));
#671=CARTESIAN_POINT('',(0.,0.,-19.05));
#672=CARTESIAN_POINT('',(-22.8820645684625,11.02592948847,-19.05));
#673=CARTESIAN_POINT('',(1.23882354480243,6.22798653056051,-19.05));
#674=CARTESIAN_POINT('',(-28.7732060355364,12.1977503842541,-19.05));
#675=CARTESIAN_POINT('',(-30.0120295803388,5.9697638536936,-19.05));
#676=CARTESIAN_POINT('',(0.,0.,-19.05));
#677=CARTESIAN_POINT('',(-25.3597116580674,-1.43004357265106,15.875));
#678=CARTESIAN_POINT('',(24.5934442484171,-6.35,15.875));
#679=CARTESIAN_POINT('',(0.,0.,15.875));
#680=CARTESIAN_POINT('',(-22.8820645684625,11.02592948847,15.875));
#681=CARTESIAN_POINT('',(24.5934442484171,6.35,15.875));
#682=CARTESIAN_POINT('',(0.,0.,15.875));
#683=CARTESIAN_POINT('',(0.,0.,-9.525));
#684=CARTESIAN_POINT('',(0.,0.,-3.39774066103123));
#685=CARTESIAN_POINT('',(-91.5419256168767,0.,-3.39774066103123));
#686=CARTESIAN_POINT('',(0.,0.,-3.27499999999996));
#687=CARTESIAN_POINT('',(0.,0.,-3.42499999999998));
#688=CARTESIAN_POINT('',(41.1,0.,-3.42499999999998));
#689=CARTESIAN_POINT('',(0.,0.,-3.42499999999998));
#690=CARTESIAN_POINT('',(91.3348703807947,0.,-3.42499999999998));
#691=CARTESIAN_POINT('',(91.4401923788646,0.,-3.42499999999998));
#692=CARTESIAN_POINT('',(0.,0.,-2.62499999999998));
#693=CARTESIAN_POINT('',(0.,0.,-0.999999999999999));
#694=CARTESIAN_POINT('',(-39.1,0.,-0.999999999999999));
#695=CARTESIAN_POINT('',(0.,0.,-1.42499999999998));
#696=CARTESIAN_POINT('',(39.1,0.,-1.42499999999998));
#697=CARTESIAN_POINT('',(0.,0.,-9.525));
#698=CARTESIAN_POINT('',(0.,0.,-1.42499999999998));
#699=CARTESIAN_POINT('',(0.,0.,-15.6522593389688));
#700=CARTESIAN_POINT('',(91.5419256168767,0.,-15.6522593389688));
#701=CARTESIAN_POINT('',(0.,0.,-15.775));
#702=CARTESIAN_POINT('',(0.,0.,-15.625));
#703=CARTESIAN_POINT('',(-41.1,0.,-15.625));
#704=CARTESIAN_POINT('',(0.,0.,-15.625));
#705=CARTESIAN_POINT('',(-91.3348703807947,0.,-15.625));
#706=CARTESIAN_POINT('',(91.4401923788646,0.,-15.625));
#707=CARTESIAN_POINT('',(0.,0.,-16.425));
#708=CARTESIAN_POINT('',(0.,0.,-18.05));
#709=CARTESIAN_POINT('',(39.1,0.,-18.05));
#710=CARTESIAN_POINT('',(0.,0.,-17.625));
#711=CARTESIAN_POINT('',(-39.1,0.,-17.625));
#712=CARTESIAN_POINT('',(0.,0.,-9.525));
#713=CARTESIAN_POINT('',(0.,0.,-17.625));
#714=CARTESIAN_POINT('',(0.,0.,-18.05));
#715=CARTESIAN_POINT('',(0.,0.,-0.999999999999999));
#716=CARTESIAN_POINT('',(30.6,6.35,15.875));
#717=CARTESIAN_POINT('',(30.6,-6.35,15.875));
#718=CARTESIAN_POINT('',(30.6,-6.35,15.875));
#719=CARTESIAN_POINT('',(30.6,6.35,15.875));
#720=CARTESIAN_POINT('',(0.,-6.35,15.875));
#721=CARTESIAN_POINT('',(-31.2508531251413,-0.258222676866906,15.875));
#722=CARTESIAN_POINT('',(-28.7732060355364,12.1977503842541,15.875));
#723=CARTESIAN_POINT('',(-28.7732060355364,12.1977503842541,15.875));
#724=CARTESIAN_POINT('',(-31.2508531251413,-0.258222676866906,15.875));
#725=CARTESIAN_POINT('',(1.23882354480243,6.22798653056051,15.875));
#726=CARTESIAN_POINT('',(113.606628285938,-1.22458615311174,-9.51972331551262));
#727=CARTESIAN_POINT('',(121.54719110891,-0.251643165589593,-9.49067168112192));
#728=CARTESIAN_POINT('',(0.,0.,-9.525));
#729=MECHANICAL_DESIGN_GEOMETRIC_PRESENTATION_REPRESENTATION('',(#417,#418,
#419,#420,#421),#730);
#730=(
GEOMETRIC_REPRESENTATION_CONTEXT(3)
GLOBAL_UNCERTAINTY_ASSIGNED_CONTEXT((#731))
GLOBAL_UNIT_ASSIGNED_CONTEXT((#737,#733,#732))
REPRESENTATION_CONTEXT('335.25-10','TOP_LEVEL_ASSEMBLY_PART')
);
#731=UNCERTAINTY_MEASURE_WITH_UNIT(LENGTH_MEASURE(2.E-5),#737,
'DISTANCE_ACCURACY_VALUE','Maximum Tolerance applied to model');
#732=(
NAMED_UNIT(*)
SI_UNIT($,.STERADIAN.)
SOLID_ANGLE_UNIT()
);
#733=(
CONVERSION_BASED_UNIT('DEGREE',#735)
NAMED_UNIT(#734)
PLANE_ANGLE_UNIT()
);
#734=DIMENSIONAL_EXPONENTS(0.,0.,0.,0.,0.,0.,0.);
#735=PLANE_ANGLE_MEASURE_WITH_UNIT(PLANE_ANGLE_MEASURE(0.0174532925),#736);
#736=(
NAMED_UNIT(*)
PLANE_ANGLE_UNIT()
SI_UNIT($,.RADIAN.)
);
#737=(
LENGTH_UNIT()
NAMED_UNIT(*)
SI_UNIT(.MILLI.,.METRE.)
);
ENDSEC;
END-ISO-10303-21;
