ISO-10303-21;
HEADER;
/* Generated by software containing ST-Developer
 * from STEP Tools, Inc. (www.steptools.com) 
 */
/* OPTION: using custom schema-name function */

FILE_DESCRIPTION(
/* description */ (''),
/* implementation_level */ '2;1');

FILE_NAME(
/* name */ '335.25-05.00-0911N-R8.stp',
/* time_stamp */ '2020-03-05T16:24:39+06:00',
/* author */ (''),
/* organization */ (''),
/* preprocessor_version */ 'ST-DEVELOPER v16.7',
/* originating_system */ 'SIEMENS PLM Software NX 12.0',
/* authorisation */ '');

FILE_SCHEMA (('AUTOMOTIVE_DESIGN { 1 0 10303 214 3 1 1 1 }'));
ENDSEC;

DATA;
#10=CONSTRUCTIVE_GEOMETRY_REPRESENTATION_RELATIONSHIP(
'supplemental geometry','',#24,#11);
#11=CONSTRUCTIVE_GEOMETRY_REPRESENTATION('supplemental geometry',(#372,
#373,#374),#611);
#12=SHAPE_REPRESENTATION_RELATIONSHIP('None',
'relationship between 335.25-05.00-0911N-R8-None and 335.25-05.00-0911
N-R8-None',#24,#13);
#13=ADVANCED_BREP_SHAPE_REPRESENTATION('335.25-05.00-0911N-R8-None',(#38,
#39),#611);
#14=SHAPE_DEFINITION_REPRESENTATION(#15,#24);
#15=PRODUCT_DEFINITION_SHAPE('','',#16);
#16=PRODUCT_DEFINITION(' ','',#18,#17);
#17=PRODUCT_DEFINITION_CONTEXT('part definition',#23,'design');
#18=PRODUCT_DEFINITION_FORMATION_WITH_SPECIFIED_SOURCE(' ',' ',#20,
 .NOT_KNOWN.);
#19=PRODUCT_RELATED_PRODUCT_CATEGORY('part','',(#20));
#20=PRODUCT('335.25-05.00-0911N-R8','335.25-05.00-0911N-R8',' ',(#21));
#21=PRODUCT_CONTEXT(' ',#23,'mechanical');
#22=APPLICATION_PROTOCOL_DEFINITION('international standard',
'automotive_design',2010,#23);
#23=APPLICATION_CONTEXT(
'core data for automotive mechanical design processes');
#24=SHAPE_REPRESENTATION('335.25-05.00-0911N-R8-None',(#371),#611);
#25=SURFACE_OF_REVOLUTION('',#347,#26);
#26=AXIS1_PLACEMENT('',#609,#517);
#27=VERTEX_LOOP('',#294);
#28=SURFACE_STYLE_USAGE(.BOTH.,#30);
#29=SURFACE_STYLE_USAGE(.BOTH.,#31);
#30=SURFACE_SIDE_STYLE('',(#32));
#31=SURFACE_SIDE_STYLE('',(#33));
#32=SURFACE_STYLE_FILL_AREA(#34);
#33=SURFACE_STYLE_FILL_AREA(#35);
#34=FILL_AREA_STYLE('',(#36));
#35=FILL_AREA_STYLE('',(#37));
#36=FILL_AREA_STYLE_COLOUR('',#366);
#37=FILL_AREA_STYLE_COLOUR('',#367);
#38=MANIFOLD_SOLID_BREP('',#40);
#39=MANIFOLD_SOLID_BREP('',#41);
#40=CLOSED_SHELL('',(#105,#106,#107,#108,#109,#110,#111,#112,#113,#114,
#115,#116,#117,#118,#119,#120,#121,#122,#123,#124,#125));
#41=CLOSED_SHELL('',(#126));
#42=FACE_OUTER_BOUND('',#174,.T.);
#43=FACE_OUTER_BOUND('',#175,.T.);
#44=FACE_OUTER_BOUND('',#188,.T.);
#45=FACE_OUTER_BOUND('',#189,.T.);
#46=FACE_OUTER_BOUND('',#190,.T.);
#47=FACE_OUTER_BOUND('',#191,.T.);
#48=FACE_OUTER_BOUND('',#192,.T.);
#49=FACE_OUTER_BOUND('',#193,.T.);
#50=LINE('',#541,#70);
#51=LINE('',#544,#71);
#52=LINE('',#546,#72);
#53=LINE('',#550,#73);
#54=LINE('',#552,#74);
#55=LINE('',#554,#75);
#56=LINE('',#560,#76);
#57=LINE('',#565,#77);
#58=LINE('',#567,#78);
#59=LINE('',#569,#79);
#60=LINE('',#573,#80);
#61=LINE('',#575,#81);
#62=LINE('',#577,#82);
#63=LINE('',#578,#83);
#64=LINE('',#580,#84);
#65=LINE('',#581,#85);
#66=LINE('',#597,#86);
#67=LINE('',#598,#87);
#68=LINE('',#602,#88);
#69=LINE('',#603,#89);
#70=VECTOR('',#445,1.);
#71=VECTOR('',#446,1.);
#72=VECTOR('',#447,1.);
#73=VECTOR('',#450,1.);
#74=VECTOR('',#451,1.);
#75=VECTOR('',#452,1.);
#76=VECTOR('',#459,1.);
#77=VECTOR('',#462,1.);
#78=VECTOR('',#463,1.);
#79=VECTOR('',#464,1.);
#80=VECTOR('',#467,1.);
#81=VECTOR('',#468,1.);
#82=VECTOR('',#471,1.);
#83=VECTOR('',#472,1.);
#84=VECTOR('',#475,1.);
#85=VECTOR('',#476,1.);
#86=VECTOR('',#499,1.);
#87=VECTOR('',#500,1.);
#88=VECTOR('',#507,1.);
#89=VECTOR('',#508,1.);
#90=PLANE('',#383);
#91=PLANE('',#385);
#92=PLANE('',#389);
#93=PLANE('',#393);
#94=PLANE('',#406);
#95=PLANE('',#407);
#96=PLANE('',#408);
#97=PLANE('',#409);
#98=PLANE('',#410);
#99=PLANE('',#411);
#100=CYLINDRICAL_SURFACE('',#381,61.85);
#101=CYLINDRICAL_SURFACE('',#394,19.05);
#102=CYLINDRICAL_SURFACE('',#395,19.05);
#103=CYLINDRICAL_SURFACE('',#398,29.575);
#104=CYLINDRICAL_SURFACE('',#401,29.575);
#105=ADVANCED_FACE('',(#133,#134),#127,.T.);
#106=ADVANCED_FACE('',(#135,#136),#128,.T.);
#107=ADVANCED_FACE('',(#137,#138),#100,.T.);
#108=ADVANCED_FACE('',(#139,#140),#90,.F.);
#109=ADVANCED_FACE('',(#141,#142),#91,.F.);
#110=ADVANCED_FACE('',(#143,#144),#92,.F.);
#111=ADVANCED_FACE('',(#145,#146),#93,.F.);
#112=ADVANCED_FACE('',(#42),#101,.F.);
#113=ADVANCED_FACE('',(#43),#102,.F.);
#114=ADVANCED_FACE('',(#147,#148),#103,.T.);
#115=ADVANCED_FACE('',(#149,#150),#104,.T.);
#116=ADVANCED_FACE('',(#151,#152),#129,.F.);
#117=ADVANCED_FACE('',(#153,#154),#130,.F.);
#118=ADVANCED_FACE('',(#155,#156),#131,.T.);
#119=ADVANCED_FACE('',(#157,#158),#132,.T.);
#120=ADVANCED_FACE('',(#44),#94,.T.);
#121=ADVANCED_FACE('',(#45),#95,.T.);
#122=ADVANCED_FACE('',(#46),#96,.T.);
#123=ADVANCED_FACE('',(#47),#97,.T.);
#124=ADVANCED_FACE('',(#48),#98,.T.);
#125=ADVANCED_FACE('',(#49),#99,.T.);
#126=ADVANCED_FACE('',(#159),#25,.T.);
#127=TOROIDAL_SURFACE('',#377,57.85,4.);
#128=TOROIDAL_SURFACE('',#380,57.85,4.);
#129=TOROIDAL_SURFACE('',#402,31.575,2.);
#130=TOROIDAL_SURFACE('',#403,31.575,2.);
#131=TOROIDAL_SURFACE('',#404,28.575,1.);
#132=TOROIDAL_SURFACE('',#405,28.575,1.);
#133=FACE_BOUND('',#160,.T.);
#134=FACE_BOUND('',#161,.T.);
#135=FACE_BOUND('',#162,.T.);
#136=FACE_BOUND('',#163,.T.);
#137=FACE_BOUND('',#164,.T.);
#138=FACE_BOUND('',#165,.T.);
#139=FACE_BOUND('',#166,.T.);
#140=FACE_BOUND('',#167,.T.);
#141=FACE_BOUND('',#168,.T.);
#142=FACE_BOUND('',#169,.T.);
#143=FACE_BOUND('',#170,.T.);
#144=FACE_BOUND('',#171,.T.);
#145=FACE_BOUND('',#172,.T.);
#146=FACE_BOUND('',#173,.T.);
#147=FACE_BOUND('',#176,.T.);
#148=FACE_BOUND('',#177,.T.);
#149=FACE_BOUND('',#178,.T.);
#150=FACE_BOUND('',#179,.T.);
#151=FACE_BOUND('',#180,.T.);
#152=FACE_BOUND('',#181,.T.);
#153=FACE_BOUND('',#182,.T.);
#154=FACE_BOUND('',#183,.T.);
#155=FACE_BOUND('',#184,.T.);
#156=FACE_BOUND('',#185,.T.);
#157=FACE_BOUND('',#186,.T.);
#158=FACE_BOUND('',#187,.T.);
#159=FACE_BOUND('',#27,.T.);
#160=EDGE_LOOP('',(#194));
#161=EDGE_LOOP('',(#195));
#162=EDGE_LOOP('',(#196));
#163=EDGE_LOOP('',(#197));
#164=EDGE_LOOP('',(#198));
#165=EDGE_LOOP('',(#199));
#166=EDGE_LOOP('',(#200));
#167=EDGE_LOOP('',(#201));
#168=EDGE_LOOP('',(#202));
#169=EDGE_LOOP('',(#203));
#170=EDGE_LOOP('',(#204));
#171=EDGE_LOOP('',(#205,#206,#207,#208,#209,#210,#211,#212));
#172=EDGE_LOOP('',(#213));
#173=EDGE_LOOP('',(#214,#215,#216,#217,#218,#219,#220,#221));
#174=EDGE_LOOP('',(#222,#223,#224,#225));
#175=EDGE_LOOP('',(#226,#227,#228,#229));
#176=EDGE_LOOP('',(#230));
#177=EDGE_LOOP('',(#231));
#178=EDGE_LOOP('',(#232));
#179=EDGE_LOOP('',(#233));
#180=EDGE_LOOP('',(#234));
#181=EDGE_LOOP('',(#235));
#182=EDGE_LOOP('',(#236));
#183=EDGE_LOOP('',(#237));
#184=EDGE_LOOP('',(#238));
#185=EDGE_LOOP('',(#239));
#186=EDGE_LOOP('',(#240));
#187=EDGE_LOOP('',(#241));
#188=EDGE_LOOP('',(#242,#243,#244,#245));
#189=EDGE_LOOP('',(#246,#247,#248,#249));
#190=EDGE_LOOP('',(#250,#251,#252,#253));
#191=EDGE_LOOP('',(#254,#255,#256,#257));
#192=EDGE_LOOP('',(#258,#259,#260,#261));
#193=EDGE_LOOP('',(#262,#263,#264,#265));
#194=ORIENTED_EDGE('',*,*,#295,.F.);
#195=ORIENTED_EDGE('',*,*,#296,.F.);
#196=ORIENTED_EDGE('',*,*,#297,.F.);
#197=ORIENTED_EDGE('',*,*,#298,.F.);
#198=ORIENTED_EDGE('',*,*,#296,.T.);
#199=ORIENTED_EDGE('',*,*,#298,.T.);
#200=ORIENTED_EDGE('',*,*,#295,.T.);
#201=ORIENTED_EDGE('',*,*,#299,.T.);
#202=ORIENTED_EDGE('',*,*,#297,.T.);
#203=ORIENTED_EDGE('',*,*,#300,.T.);
#204=ORIENTED_EDGE('',*,*,#301,.T.);
#205=ORIENTED_EDGE('',*,*,#302,.F.);
#206=ORIENTED_EDGE('',*,*,#303,.F.);
#207=ORIENTED_EDGE('',*,*,#304,.F.);
#208=ORIENTED_EDGE('',*,*,#305,.T.);
#209=ORIENTED_EDGE('',*,*,#306,.F.);
#210=ORIENTED_EDGE('',*,*,#307,.F.);
#211=ORIENTED_EDGE('',*,*,#308,.F.);
#212=ORIENTED_EDGE('',*,*,#309,.T.);
#213=ORIENTED_EDGE('',*,*,#310,.T.);
#214=ORIENTED_EDGE('',*,*,#311,.F.);
#215=ORIENTED_EDGE('',*,*,#312,.T.);
#216=ORIENTED_EDGE('',*,*,#313,.F.);
#217=ORIENTED_EDGE('',*,*,#314,.F.);
#218=ORIENTED_EDGE('',*,*,#315,.F.);
#219=ORIENTED_EDGE('',*,*,#316,.T.);
#220=ORIENTED_EDGE('',*,*,#317,.F.);
#221=ORIENTED_EDGE('',*,*,#318,.F.);
#222=ORIENTED_EDGE('',*,*,#319,.F.);
#223=ORIENTED_EDGE('',*,*,#309,.F.);
#224=ORIENTED_EDGE('',*,*,#320,.F.);
#225=ORIENTED_EDGE('',*,*,#312,.F.);
#226=ORIENTED_EDGE('',*,*,#321,.F.);
#227=ORIENTED_EDGE('',*,*,#316,.F.);
#228=ORIENTED_EDGE('',*,*,#322,.F.);
#229=ORIENTED_EDGE('',*,*,#305,.F.);
#230=ORIENTED_EDGE('',*,*,#323,.T.);
#231=ORIENTED_EDGE('',*,*,#324,.T.);
#232=ORIENTED_EDGE('',*,*,#325,.T.);
#233=ORIENTED_EDGE('',*,*,#326,.T.);
#234=ORIENTED_EDGE('',*,*,#326,.F.);
#235=ORIENTED_EDGE('',*,*,#300,.F.);
#236=ORIENTED_EDGE('',*,*,#299,.F.);
#237=ORIENTED_EDGE('',*,*,#324,.F.);
#238=ORIENTED_EDGE('',*,*,#310,.F.);
#239=ORIENTED_EDGE('',*,*,#325,.F.);
#240=ORIENTED_EDGE('',*,*,#323,.F.);
#241=ORIENTED_EDGE('',*,*,#301,.F.);
#242=ORIENTED_EDGE('',*,*,#307,.T.);
#243=ORIENTED_EDGE('',*,*,#327,.T.);
#244=ORIENTED_EDGE('',*,*,#314,.T.);
#245=ORIENTED_EDGE('',*,*,#328,.F.);
#246=ORIENTED_EDGE('',*,*,#315,.T.);
#247=ORIENTED_EDGE('',*,*,#327,.F.);
#248=ORIENTED_EDGE('',*,*,#306,.T.);
#249=ORIENTED_EDGE('',*,*,#322,.T.);
#250=ORIENTED_EDGE('',*,*,#313,.T.);
#251=ORIENTED_EDGE('',*,*,#320,.T.);
#252=ORIENTED_EDGE('',*,*,#308,.T.);
#253=ORIENTED_EDGE('',*,*,#328,.T.);
#254=ORIENTED_EDGE('',*,*,#303,.T.);
#255=ORIENTED_EDGE('',*,*,#329,.T.);
#256=ORIENTED_EDGE('',*,*,#318,.T.);
#257=ORIENTED_EDGE('',*,*,#330,.F.);
#258=ORIENTED_EDGE('',*,*,#311,.T.);
#259=ORIENTED_EDGE('',*,*,#329,.F.);
#260=ORIENTED_EDGE('',*,*,#302,.T.);
#261=ORIENTED_EDGE('',*,*,#319,.T.);
#262=ORIENTED_EDGE('',*,*,#317,.T.);
#263=ORIENTED_EDGE('',*,*,#321,.T.);
#264=ORIENTED_EDGE('',*,*,#304,.T.);
#265=ORIENTED_EDGE('',*,*,#330,.T.);
#266=VERTEX_POINT('',#523);
#267=VERTEX_POINT('',#525);
#268=VERTEX_POINT('',#528);
#269=VERTEX_POINT('',#530);
#270=VERTEX_POINT('',#534);
#271=VERTEX_POINT('',#537);
#272=VERTEX_POINT('',#540);
#273=VERTEX_POINT('',#542);
#274=VERTEX_POINT('',#543);
#275=VERTEX_POINT('',#545);
#276=VERTEX_POINT('',#547);
#277=VERTEX_POINT('',#549);
#278=VERTEX_POINT('',#551);
#279=VERTEX_POINT('',#553);
#280=VERTEX_POINT('',#555);
#281=VERTEX_POINT('',#559);
#282=VERTEX_POINT('',#561);
#283=VERTEX_POINT('',#562);
#284=VERTEX_POINT('',#564);
#285=VERTEX_POINT('',#566);
#286=VERTEX_POINT('',#568);
#287=VERTEX_POINT('',#570);
#288=VERTEX_POINT('',#572);
#289=VERTEX_POINT('',#574);
#290=VERTEX_POINT('',#584);
#291=VERTEX_POINT('',#586);
#292=VERTEX_POINT('',#589);
#293=VERTEX_POINT('',#591);
#294=VERTEX_POINT('',#607);
#295=EDGE_CURVE('',#266,#266,#331,.T.);
#296=EDGE_CURVE('',#267,#267,#332,.T.);
#297=EDGE_CURVE('',#268,#268,#333,.T.);
#298=EDGE_CURVE('',#269,#269,#334,.T.);
#299=EDGE_CURVE('',#270,#270,#335,.T.);
#300=EDGE_CURVE('',#271,#271,#336,.T.);
#301=EDGE_CURVE('',#272,#272,#337,.T.);
#302=EDGE_CURVE('',#273,#274,#50,.T.);
#303=EDGE_CURVE('',#275,#273,#51,.T.);
#304=EDGE_CURVE('',#276,#275,#52,.T.);
#305=EDGE_CURVE('',#276,#277,#338,.T.);
#306=EDGE_CURVE('',#278,#277,#53,.T.);
#307=EDGE_CURVE('',#279,#278,#54,.T.);
#308=EDGE_CURVE('',#280,#279,#55,.T.);
#309=EDGE_CURVE('',#280,#274,#339,.T.);
#310=EDGE_CURVE('',#281,#281,#340,.T.);
#311=EDGE_CURVE('',#282,#283,#56,.T.);
#312=EDGE_CURVE('',#282,#284,#341,.T.);
#313=EDGE_CURVE('',#285,#284,#57,.T.);
#314=EDGE_CURVE('',#286,#285,#58,.T.);
#315=EDGE_CURVE('',#287,#286,#59,.T.);
#316=EDGE_CURVE('',#287,#288,#342,.T.);
#317=EDGE_CURVE('',#289,#288,#60,.T.);
#318=EDGE_CURVE('',#283,#289,#61,.T.);
#319=EDGE_CURVE('',#274,#282,#62,.T.);
#320=EDGE_CURVE('',#284,#280,#63,.T.);
#321=EDGE_CURVE('',#288,#276,#64,.T.);
#322=EDGE_CURVE('',#277,#287,#65,.T.);
#323=EDGE_CURVE('',#290,#290,#343,.T.);
#324=EDGE_CURVE('',#291,#291,#344,.T.);
#325=EDGE_CURVE('',#292,#292,#345,.T.);
#326=EDGE_CURVE('',#293,#293,#346,.T.);
#327=EDGE_CURVE('',#278,#286,#66,.T.);
#328=EDGE_CURVE('',#279,#285,#67,.T.);
#329=EDGE_CURVE('',#273,#283,#68,.T.);
#330=EDGE_CURVE('',#275,#289,#69,.T.);
#331=CIRCLE('',#375,57.85);
#332=CIRCLE('',#376,61.85);
#333=CIRCLE('',#378,57.85);
#334=CIRCLE('',#379,61.85);
#335=CIRCLE('',#382,31.575);
#336=CIRCLE('',#384,31.575);
#337=CIRCLE('',#386,28.575);
#338=CIRCLE('',#387,19.05);
#339=CIRCLE('',#388,19.05);
#340=CIRCLE('',#390,28.575);
#341=CIRCLE('',#391,19.05);
#342=CIRCLE('',#392,19.05);
#343=CIRCLE('',#396,29.575);
#344=CIRCLE('',#397,29.575);
#345=CIRCLE('',#399,29.575);
#346=CIRCLE('',#400,29.575);
#347=CIRCLE('',#412,8.);
#348=PRESENTATION_LAYER_ASSIGNMENT('1','Layer 1',(#372,#373,#374));
#349=PRESENTATION_LAYER_ASSIGNMENT('2','Layer 2',(#38));
#350=PRESENTATION_LAYER_ASSIGNMENT('3','Layer 3',(#39));
#351=STYLED_ITEM('',(#356),#372);
#352=STYLED_ITEM('',(#357),#373);
#353=STYLED_ITEM('',(#358),#374);
#354=STYLED_ITEM('',(#359),#38);
#355=STYLED_ITEM('',(#360),#39);
#356=PRESENTATION_STYLE_ASSIGNMENT((#361));
#357=PRESENTATION_STYLE_ASSIGNMENT((#362));
#358=PRESENTATION_STYLE_ASSIGNMENT((#363));
#359=PRESENTATION_STYLE_ASSIGNMENT((#28));
#360=PRESENTATION_STYLE_ASSIGNMENT((#29));
#361=CURVE_STYLE('',#368,POSITIVE_LENGTH_MEASURE(0.18),#364);
#362=CURVE_STYLE('',#369,POSITIVE_LENGTH_MEASURE(0.18),#364);
#363=CURVE_STYLE('',#370,POSITIVE_LENGTH_MEASURE(0.13),#365);
#364=COLOUR_RGB('Strong Stone',0.576470588235294,0.54508278019379,0.392156862745098);
#365=COLOUR_RGB('Medium Maroon',0.6,0.4,0.4);
#366=COLOUR_RGB('Medium Gray',0.490196078431373,0.490196078431373,0.490196078431373);
#367=COLOUR_RGB('Light Gray',0.8,0.8,0.8);
#368=DRAUGHTING_PRE_DEFINED_CURVE_FONT('continuous');
#369=DRAUGHTING_PRE_DEFINED_CURVE_FONT('continuous');
#370=DRAUGHTING_PRE_DEFINED_CURVE_FONT('continuous');
#371=AXIS2_PLACEMENT_3D('',#518,#413,#414);
#372=AXIS2_PLACEMENT_3D('MCS',#519,#415,#416);
#373=AXIS2_PLACEMENT_3D('PCS',#520,#417,#418);
#374=AXIS2_PLACEMENT_3D('CIP',#521,#419,#420);
#375=AXIS2_PLACEMENT_3D('',#522,#421,#422);
#376=AXIS2_PLACEMENT_3D('',#524,#423,#424);
#377=AXIS2_PLACEMENT_3D('',#526,#425,#426);
#378=AXIS2_PLACEMENT_3D('',#527,#427,#428);
#379=AXIS2_PLACEMENT_3D('',#529,#429,#430);
#380=AXIS2_PLACEMENT_3D('',#531,#431,#432);
#381=AXIS2_PLACEMENT_3D('',#532,#433,#434);
#382=AXIS2_PLACEMENT_3D('',#533,#435,#436);
#383=AXIS2_PLACEMENT_3D('',#535,#437,#438);
#384=AXIS2_PLACEMENT_3D('',#536,#439,#440);
#385=AXIS2_PLACEMENT_3D('',#538,#441,#442);
#386=AXIS2_PLACEMENT_3D('',#539,#443,#444);
#387=AXIS2_PLACEMENT_3D('',#548,#448,#449);
#388=AXIS2_PLACEMENT_3D('',#556,#453,#454);
#389=AXIS2_PLACEMENT_3D('',#557,#455,#456);
#390=AXIS2_PLACEMENT_3D('',#558,#457,#458);
#391=AXIS2_PLACEMENT_3D('',#563,#460,#461);
#392=AXIS2_PLACEMENT_3D('',#571,#465,#466);
#393=AXIS2_PLACEMENT_3D('',#576,#469,#470);
#394=AXIS2_PLACEMENT_3D('',#579,#473,#474);
#395=AXIS2_PLACEMENT_3D('',#582,#477,#478);
#396=AXIS2_PLACEMENT_3D('',#583,#479,#480);
#397=AXIS2_PLACEMENT_3D('',#585,#481,#482);
#398=AXIS2_PLACEMENT_3D('',#587,#483,#484);
#399=AXIS2_PLACEMENT_3D('',#588,#485,#486);
#400=AXIS2_PLACEMENT_3D('',#590,#487,#488);
#401=AXIS2_PLACEMENT_3D('',#592,#489,#490);
#402=AXIS2_PLACEMENT_3D('',#593,#491,#492);
#403=AXIS2_PLACEMENT_3D('',#594,#493,#494);
#404=AXIS2_PLACEMENT_3D('',#595,#495,#496);
#405=AXIS2_PLACEMENT_3D('',#596,#497,#498);
#406=AXIS2_PLACEMENT_3D('',#599,#501,#502);
#407=AXIS2_PLACEMENT_3D('',#600,#503,#504);
#408=AXIS2_PLACEMENT_3D('',#601,#505,#506);
#409=AXIS2_PLACEMENT_3D('',#604,#509,#510);
#410=AXIS2_PLACEMENT_3D('',#605,#511,#512);
#411=AXIS2_PLACEMENT_3D('',#606,#513,#514);
#412=AXIS2_PLACEMENT_3D('',#608,#515,#516);
#413=DIRECTION('',(0.,0.,1.));
#414=DIRECTION('',(1.,0.,0.));
#415=DIRECTION('',(0.,0.,1.));
#416=DIRECTION('',(1.,0.,0.));
#417=DIRECTION('',(0.,0.,1.));
#418=DIRECTION('',(1.,0.,0.));
#419=DIRECTION('',(0.,0.,1.));
#420=DIRECTION('',(1.,0.,0.));
#421=DIRECTION('',(0.,0.,-1.));
#422=DIRECTION('',(-1.,0.,0.));
#423=DIRECTION('',(0.,0.,1.));
#424=DIRECTION('',(-1.,0.,0.));
#425=DIRECTION('',(0.,0.,1.));
#426=DIRECTION('',(-1.,0.,0.));
#427=DIRECTION('',(0.,0.,1.));
#428=DIRECTION('',(1.,0.,0.));
#429=DIRECTION('',(0.,0.,-1.));
#430=DIRECTION('',(1.,0.,0.));
#431=DIRECTION('',(0.,0.,-1.));
#432=DIRECTION('',(1.,0.,0.));
#433=DIRECTION('',(0.,0.,-1.));
#434=DIRECTION('',(1.,0.,0.));
#435=DIRECTION('',(0.,0.,1.));
#436=DIRECTION('',(-1.,0.,0.));
#437=DIRECTION('',(0.,0.,1.));
#438=DIRECTION('',(-1.,0.,0.));
#439=DIRECTION('',(0.,0.,-1.));
#440=DIRECTION('',(1.,0.,0.));
#441=DIRECTION('',(0.,0.,-1.));
#442=DIRECTION('',(1.,0.,0.));
#443=DIRECTION('',(0.,0.,-1.));
#444=DIRECTION('',(-1.,0.,0.));
#445=DIRECTION('',(0.923879532511286,0.382683432365092,0.));
#446=DIRECTION('',(-0.382683432365092,0.923879532511286,0.));
#447=DIRECTION('',(-0.923879532511286,-0.382683432365092,0.));
#448=DIRECTION('',(0.,0.,1.));
#449=DIRECTION('',(-1.,0.,0.));
#450=DIRECTION('',(-1.,-3.69877073769042E-17,0.));
#451=DIRECTION('',(0.,-1.,0.));
#452=DIRECTION('',(1.,-3.69877073769042E-17,0.));
#453=DIRECTION('',(0.,0.,1.));
#454=DIRECTION('',(-1.,0.,0.));
#455=DIRECTION('',(0.,0.,1.));
#456=DIRECTION('',(-1.,0.,0.));
#457=DIRECTION('',(0.,0.,1.));
#458=DIRECTION('',(1.,0.,0.));
#459=DIRECTION('',(-0.923879532511286,-0.382683432365092,0.));
#460=DIRECTION('',(0.,0.,-1.));
#461=DIRECTION('',(1.,0.,0.));
#462=DIRECTION('',(-1.,3.69877073769042E-17,0.));
#463=DIRECTION('',(0.,1.,0.));
#464=DIRECTION('',(1.,3.69877073769042E-17,0.));
#465=DIRECTION('',(0.,0.,-1.));
#466=DIRECTION('',(1.,0.,0.));
#467=DIRECTION('',(0.923879532511286,0.382683432365092,0.));
#468=DIRECTION('',(0.382683432365092,-0.923879532511286,0.));
#469=DIRECTION('',(0.,0.,-1.));
#470=DIRECTION('',(1.,0.,0.));
#471=DIRECTION('',(0.,0.,1.));
#472=DIRECTION('',(0.,0.,-1.));
#473=DIRECTION('',(0.,0.,1.));
#474=DIRECTION('',(0.,-1.,0.));
#475=DIRECTION('',(0.,0.,-1.));
#476=DIRECTION('',(0.,0.,1.));
#477=DIRECTION('',(0.,0.,1.));
#478=DIRECTION('',(0.,-1.,0.));
#479=DIRECTION('',(0.,0.,1.));
#480=DIRECTION('',(-1.,0.,0.));
#481=DIRECTION('',(0.,0.,-1.));
#482=DIRECTION('',(-1.,0.,0.));
#483=DIRECTION('',(0.,0.,-1.));
#484=DIRECTION('',(1.,0.,0.));
#485=DIRECTION('',(0.,0.,-1.));
#486=DIRECTION('',(1.,0.,0.));
#487=DIRECTION('',(0.,0.,1.));
#488=DIRECTION('',(1.,0.,0.));
#489=DIRECTION('',(0.,0.,-1.));
#490=DIRECTION('',(1.,0.,0.));
#491=DIRECTION('',(0.,0.,-1.));
#492=DIRECTION('',(1.,0.,0.));
#493=DIRECTION('',(0.,0.,1.));
#494=DIRECTION('',(-1.,0.,0.));
#495=DIRECTION('',(0.,0.,-1.));
#496=DIRECTION('',(1.,0.,0.));
#497=DIRECTION('',(0.,0.,1.));
#498=DIRECTION('',(-1.,0.,0.));
#499=DIRECTION('',(0.,0.,1.));
#500=DIRECTION('',(0.,0.,1.));
#501=DIRECTION('',(-1.,0.,0.));
#502=DIRECTION('',(0.,0.,1.));
#503=DIRECTION('',(-3.69877073769042E-17,1.,0.));
#504=DIRECTION('',(1.,3.72965547335014E-17,0.));
#505=DIRECTION('',(-3.69877073769042E-17,-1.,0.));
#506=DIRECTION('',(-1.,3.72965547335014E-17,0.));
#507=DIRECTION('',(0.,0.,1.));
#508=DIRECTION('',(0.,0.,1.));
#509=DIRECTION('',(0.923879532511286,0.382683432365092,0.));
#510=DIRECTION('',(0.,0.,1.));
#511=DIRECTION('',(0.382683432365092,-0.923879532511286,0.));
#512=DIRECTION('',(-0.923879532511286,-0.382683432365092,0.));
#513=DIRECTION('',(-0.382683432365092,0.923879532511286,0.));
#514=DIRECTION('',(0.923879532511286,0.382683432365092,0.));
#515=DIRECTION('',(0.207628915064863,0.976817245412507,-0.05213734452109));
#516=DIRECTION('',(0.977761955079879,-0.208848091433518,-0.0190796725063682));
#517=DIRECTION('',(0.,0.,1.));
#518=CARTESIAN_POINT('',(0.,0.,0.));
#519=CARTESIAN_POINT('',(0.,0.,0.));
#520=CARTESIAN_POINT('',(0.,0.,0.));
#521=CARTESIAN_POINT('',(0.,0.,-17.5));
#522=CARTESIAN_POINT('',(0.,0.,-15.7750000000001));
#523=CARTESIAN_POINT('',(-57.85,0.,-15.7750000000001));
#524=CARTESIAN_POINT('',(0.,0.,-11.7750000000001));
#525=CARTESIAN_POINT('',(-61.85,0.,-11.7750000000001));
#526=CARTESIAN_POINT('',(0.,0.,-11.7750000000001));
#527=CARTESIAN_POINT('',(0.,0.,-3.27499999999993));
#528=CARTESIAN_POINT('',(57.85,0.,-3.27499999999993));
#529=CARTESIAN_POINT('',(0.,0.,-7.27499999999993));
#530=CARTESIAN_POINT('',(61.85,0.,-7.27499999999993));
#531=CARTESIAN_POINT('',(0.,0.,-7.27499999999993));
#532=CARTESIAN_POINT('',(0.,0.,-9.525));
#533=CARTESIAN_POINT('',(0.,0.,-15.7750000000001));
#534=CARTESIAN_POINT('',(-31.575,0.,-15.7750000000001));
#535=CARTESIAN_POINT('',(61.85,0.,-15.7750000000001));
#536=CARTESIAN_POINT('',(0.,0.,-3.27499999999993));
#537=CARTESIAN_POINT('',(31.575,0.,-3.27499999999993));
#538=CARTESIAN_POINT('',(29.575,0.,-3.27499999999993));
#539=CARTESIAN_POINT('',(0.,0.,-19.05));
#540=CARTESIAN_POINT('',(-28.575,0.,-19.05));
#541=CARTESIAN_POINT('',(23.4213116801573,14.8563178003811,-19.05));
#542=CARTESIAN_POINT('',(-23.4875048840284,-4.57395021537641,-19.05));
#543=CARTESIAN_POINT('',(-18.8635646779412,-2.65865147041285,-19.05));
#544=CARTESIAN_POINT('',(-17.3338165641857,-19.4302680157575,-19.05));
#545=CARTESIAN_POINT('',(-19.8424451907509,-13.3739027625464,-19.05));
#546=CARTESIAN_POINT('',(27.0663713734348,6.05636525321112,-19.05));
#547=CARTESIAN_POINT('',(-15.2185049846637,-11.4586040175828,-19.05));
#548=CARTESIAN_POINT('',(0.,0.,-19.05));
#549=CARTESIAN_POINT('',(18.4450831863128,-4.7625,-19.05));
#550=CARTESIAN_POINT('',(29.575,-4.7625,-19.05));
#551=CARTESIAN_POINT('',(23.45,-4.7625,-19.05));
#552=CARTESIAN_POINT('',(23.45,0.,-19.05));
#553=CARTESIAN_POINT('',(23.45,4.7625,-19.05));
#554=CARTESIAN_POINT('',(29.575,4.7625,-19.05));
#555=CARTESIAN_POINT('',(18.4450831863128,4.7625,-19.05));
#556=CARTESIAN_POINT('',(0.,0.,-19.05));
#557=CARTESIAN_POINT('',(29.575,0.,-19.05));
#558=CARTESIAN_POINT('',(0.,0.,0.));
#559=CARTESIAN_POINT('',(28.575,0.,0.));
#560=CARTESIAN_POINT('',(-1.82252984663875,4.399976273585,0.));
#561=CARTESIAN_POINT('',(-18.8635646779412,-2.65865147041284,-1.04083408558608E-14));
#562=CARTESIAN_POINT('',(-23.4875048840284,-4.57395021537641,0.));
#563=CARTESIAN_POINT('',(0.,0.,0.));
#564=CARTESIAN_POINT('',(18.4450831863128,4.7625,0.));
#565=CARTESIAN_POINT('',(1.76153956382506E-16,4.7625,0.));
#566=CARTESIAN_POINT('',(23.45,4.7625,0.));
#567=CARTESIAN_POINT('',(23.45,0.,0.));
#568=CARTESIAN_POINT('',(23.45,-4.7625,0.));
#569=CARTESIAN_POINT('',(1.76153956382506E-16,-4.7625,0.));
#570=CARTESIAN_POINT('',(18.4450831863128,-4.7625,0.));
#571=CARTESIAN_POINT('',(0.,0.,0.));
#572=CARTESIAN_POINT('',(-15.2185049846637,-11.4586040175828,0.));
#573=CARTESIAN_POINT('',(1.82252984663875,-4.399976273585,0.));
#574=CARTESIAN_POINT('',(-19.8424451907509,-13.3739027625464,0.));
#575=CARTESIAN_POINT('',(-21.6649750373897,-8.97392648896141,0.));
#576=CARTESIAN_POINT('',(0.,0.,0.));
#577=CARTESIAN_POINT('',(-18.8635646779412,-2.65865147041284,-28.575));
#578=CARTESIAN_POINT('',(18.4450831863128,4.7625,-28.575));
#579=CARTESIAN_POINT('',(0.,0.,-28.575));
#580=CARTESIAN_POINT('',(-15.2185049846637,-11.4586040175828,-28.575));
#581=CARTESIAN_POINT('',(18.4450831863128,-4.7625,-28.575));
#582=CARTESIAN_POINT('',(0.,0.,-28.575));
#583=CARTESIAN_POINT('',(0.,0.,-18.05));
#584=CARTESIAN_POINT('',(-29.575,0.,-18.05));
#585=CARTESIAN_POINT('',(0.,0.,-17.7750000000001));
#586=CARTESIAN_POINT('',(-29.575,0.,-17.7750000000001));
#587=CARTESIAN_POINT('',(0.,0.,-9.525));
#588=CARTESIAN_POINT('',(0.,0.,-0.999999999999999));
#589=CARTESIAN_POINT('',(29.575,0.,-0.999999999999999));
#590=CARTESIAN_POINT('',(0.,0.,-1.27499999999993));
#591=CARTESIAN_POINT('',(29.575,0.,-1.27499999999993));
#592=CARTESIAN_POINT('',(0.,0.,-9.525));
#593=CARTESIAN_POINT('',(0.,0.,-1.27499999999993));
#594=CARTESIAN_POINT('',(0.,0.,-17.7750000000001));
#595=CARTESIAN_POINT('',(0.,0.,-0.999999999999999));
#596=CARTESIAN_POINT('',(0.,0.,-18.05));
#597=CARTESIAN_POINT('',(23.45,-4.7625,-28.575));
#598=CARTESIAN_POINT('',(23.45,4.7625,-28.575));
#599=CARTESIAN_POINT('',(23.45,4.7625,-28.575));
#600=CARTESIAN_POINT('',(23.45,-4.7625,-28.575));
#601=CARTESIAN_POINT('',(-3.5527136788005E-15,4.7625,-28.575));
#602=CARTESIAN_POINT('',(-23.4875048840284,-4.57395021537641,-28.575));
#603=CARTESIAN_POINT('',(-19.8424451907509,-13.3739027625464,-28.575));
#604=CARTESIAN_POINT('',(-19.8424451907509,-13.3739027625464,-28.575));
#605=CARTESIAN_POINT('',(-23.4875048840284,-4.57395021537641,-28.575));
#606=CARTESIAN_POINT('',(1.82252984663875,-4.399976273585,-28.575));
#607=CARTESIAN_POINT('',(-49.9308583747388,3.91513916839765,-9.7035387173797));
#608=CARTESIAN_POINT('',(-57.7529540153778,5.5859238998658,-9.55090133732875));
#609=CARTESIAN_POINT('',(0.,0.,-9.525));
#610=MECHANICAL_DESIGN_GEOMETRIC_PRESENTATION_REPRESENTATION('',(#351,#352,
#353,#354,#355),#611);
#611=(
GEOMETRIC_REPRESENTATION_CONTEXT(3)
GLOBAL_UNCERTAINTY_ASSIGNED_CONTEXT((#612))
GLOBAL_UNIT_ASSIGNED_CONTEXT((#618,#614,#613))
REPRESENTATION_CONTEXT('335.25-05','TOP_LEVEL_ASSEMBLY_PART')
);
#612=UNCERTAINTY_MEASURE_WITH_UNIT(LENGTH_MEASURE(2.E-5),#618,
'DISTANCE_ACCURACY_VALUE','Maximum Tolerance applied to model');
#613=(
NAMED_UNIT(*)
SI_UNIT($,.STERADIAN.)
SOLID_ANGLE_UNIT()
);
#614=(
CONVERSION_BASED_UNIT('DEGREE',#616)
NAMED_UNIT(#615)
PLANE_ANGLE_UNIT()
);
#615=DIMENSIONAL_EXPONENTS(0.,0.,0.,0.,0.,0.,0.);
#616=PLANE_ANGLE_MEASURE_WITH_UNIT(PLANE_ANGLE_MEASURE(0.0174532925),#617);
#617=(
NAMED_UNIT(*)
PLANE_ANGLE_UNIT()
SI_UNIT($,.RADIAN.)
);
#618=(
LENGTH_UNIT()
NAMED_UNIT(*)
SI_UNIT(.MILLI.,.METRE.)
);
ENDSEC;
END-ISO-10303-21;
