ISO-10303-21;
HEADER;
/* Generated by software containing ST-Developer
 * from STEP Tools, Inc. (www.steptools.com) 
 */
/* OPTION: using custom schema-name function */

FILE_DESCRIPTION(
/* description */ (''),
/* implementation_level */ '2;1');

FILE_NAME(
/* name */ '335.18-06.00-0809L-R6.stp',
/* time_stamp */ '2020-06-04T11:36:47+05:00',
/* author */ (''),
/* organization */ (''),
/* preprocessor_version */ 'ST-DEVELOPER v16.7',
/* originating_system */ 'SIEMENS PLM Software NX 12.0',
/* authorisation */ '');

FILE_SCHEMA (('AUTOMOTIVE_DESIGN { 1 0 10303 214 3 1 1 1 }'));
ENDSEC;

DATA;
#10=CONSTRUCTIVE_GEOMETRY_REPRESENTATION_RELATIONSHIP(
'supplemental geometry','',#24,#11);
#11=CONSTRUCTIVE_GEOMETRY_REPRESENTATION('supplemental geometry',(#435,
#436,#437),#726);
#12=SHAPE_REPRESENTATION_RELATIONSHIP('None',
'relationship between 335.18-06.00-0809L-R6-None and 335.18-06.00-0809
L-R6-None',#24,#13);
#13=ADVANCED_BREP_SHAPE_REPRESENTATION('335.18-06.00-0809L-R6-None',(#36,
#37),#726);
#14=SHAPE_DEFINITION_REPRESENTATION(#15,#24);
#15=PRODUCT_DEFINITION_SHAPE('','',#16);
#16=PRODUCT_DEFINITION(' ','',#18,#17);
#17=PRODUCT_DEFINITION_CONTEXT('part definition',#23,'design');
#18=PRODUCT_DEFINITION_FORMATION_WITH_SPECIFIED_SOURCE(' ',' ',#20,
 .NOT_KNOWN.);
#19=PRODUCT_RELATED_PRODUCT_CATEGORY('part','',(#20));
#20=PRODUCT('335.18-06.00-0809L-R6','335.18-06.00-0809L-R6',' ',(#21));
#21=PRODUCT_CONTEXT(' ',#23,'mechanical');
#22=APPLICATION_PROTOCOL_DEFINITION('international standard',
'automotive_design',2010,#23);
#23=APPLICATION_CONTEXT(
'core data for automotive mechanical design processes');
#24=SHAPE_REPRESENTATION('335.18-06.00-0809L-R6-None',(#434),#726);
#25=VERTEX_LOOP('',#347);
#26=SURFACE_STYLE_USAGE(.BOTH.,#28);
#27=SURFACE_STYLE_USAGE(.BOTH.,#29);
#28=SURFACE_SIDE_STYLE('',(#30));
#29=SURFACE_SIDE_STYLE('',(#31));
#30=SURFACE_STYLE_FILL_AREA(#32);
#31=SURFACE_STYLE_FILL_AREA(#33);
#32=FILL_AREA_STYLE('',(#34));
#33=FILL_AREA_STYLE('',(#35));
#34=FILL_AREA_STYLE_COLOUR('',#429);
#35=FILL_AREA_STYLE_COLOUR('',#430);
#36=MANIFOLD_SOLID_BREP('NOCUT',#38);
#37=MANIFOLD_SOLID_BREP('CUT',#39);
#38=CLOSED_SHELL('',(#64,#65,#66,#67,#68,#69,#70,#71,#72,#73,#74,#75,#76,
#77,#78,#79,#80,#81,#82,#83,#84,#85,#86,#87,#88,#89,#90));
#39=CLOSED_SHELL('',(#91));
#40=TOROIDAL_SURFACE('',#456,72.1928203230275,2.00000000000001);
#41=TOROIDAL_SURFACE('',#460,73.5,1.);
#42=TOROIDAL_SURFACE('',#464,73.5,1.00000000000001);
#43=TOROIDAL_SURFACE('',#468,72.1928203230275,2.00000000000003);
#44=TOROIDAL_SURFACE('',#476,31.59,2.);
#45=TOROIDAL_SURFACE('',#478,31.59,2.);
#46=TOROIDAL_SURFACE('',#479,28.6015064413655,1.);
#47=TOROIDAL_SURFACE('',#480,28.6015064413655,1.);
#48=TOROIDAL_SURFACE('',#487,71.2,6.);
#49=CONICAL_SURFACE('',#452,48.9401923788647,75.);
#50=CONICAL_SURFACE('',#458,73.1928203230275,59.9999999999994);
#51=CONICAL_SURFACE('',#466,74.,60.0000000000007);
#52=CONICAL_SURFACE('',#472,49.5,75.);
#53=CYLINDRICAL_SURFACE('',#446,19.05);
#54=CYLINDRICAL_SURFACE('',#447,19.05);
#55=CYLINDRICAL_SURFACE('',#462,74.5);
#56=FACE_OUTER_BOUND('',#187,.T.);
#57=FACE_OUTER_BOUND('',#188,.T.);
#58=FACE_OUTER_BOUND('',#223,.T.);
#59=FACE_OUTER_BOUND('',#224,.T.);
#60=FACE_OUTER_BOUND('',#225,.T.);
#61=FACE_OUTER_BOUND('',#226,.T.);
#62=FACE_OUTER_BOUND('',#227,.T.);
#63=FACE_OUTER_BOUND('',#228,.T.);
#64=ADVANCED_FACE('',(#144,#145),#92,.T.);
#65=ADVANCED_FACE('',(#146,#147),#93,.T.);
#66=ADVANCED_FACE('',(#56),#53,.F.);
#67=ADVANCED_FACE('',(#57),#54,.F.);
#68=ADVANCED_FACE('',(#148,#149),#94,.T.);
#69=ADVANCED_FACE('',(#150,#151),#49,.F.);
#70=ADVANCED_FACE('',(#152,#153),#95,.T.);
#71=ADVANCED_FACE('',(#154,#155),#40,.T.);
#72=ADVANCED_FACE('',(#156,#157),#50,.T.);
#73=ADVANCED_FACE('',(#158,#159),#41,.T.);
#74=ADVANCED_FACE('',(#160,#161),#55,.T.);
#75=ADVANCED_FACE('',(#162,#163),#42,.T.);
#76=ADVANCED_FACE('',(#164,#165),#51,.T.);
#77=ADVANCED_FACE('',(#166,#167),#43,.T.);
#78=ADVANCED_FACE('',(#168,#169),#96,.T.);
#79=ADVANCED_FACE('',(#170,#171),#52,.F.);
#80=ADVANCED_FACE('',(#172,#173),#97,.T.);
#81=ADVANCED_FACE('',(#174,#175),#44,.F.);
#82=ADVANCED_FACE('',(#176,#177),#45,.F.);
#83=ADVANCED_FACE('',(#178,#179),#46,.T.);
#84=ADVANCED_FACE('',(#180,#181),#47,.T.);
#85=ADVANCED_FACE('',(#58),#98,.F.);
#86=ADVANCED_FACE('',(#59),#99,.F.);
#87=ADVANCED_FACE('',(#60),#100,.F.);
#88=ADVANCED_FACE('',(#61),#101,.T.);
#89=ADVANCED_FACE('',(#62),#102,.T.);
#90=ADVANCED_FACE('',(#63),#103,.T.);
#91=ADVANCED_FACE('',(#182),#48,.T.);
#92=PLANE('',#441);
#93=PLANE('',#445);
#94=PLANE('',#450);
#95=PLANE('',#454);
#96=PLANE('',#470);
#97=PLANE('',#474);
#98=PLANE('',#481);
#99=PLANE('',#482);
#100=PLANE('',#483);
#101=PLANE('',#484);
#102=PLANE('',#485);
#103=PLANE('',#486);
#104=LINE('',#622,#124);
#105=LINE('',#625,#125);
#106=LINE('',#627,#126);
#107=LINE('',#631,#127);
#108=LINE('',#633,#128);
#109=LINE('',#635,#129);
#110=LINE('',#641,#130);
#111=LINE('',#644,#131);
#112=LINE('',#646,#132);
#113=LINE('',#650,#133);
#114=LINE('',#652,#134);
#115=LINE('',#654,#135);
#116=LINE('',#658,#136);
#117=LINE('',#659,#137);
#118=LINE('',#661,#138);
#119=LINE('',#662,#139);
#120=LINE('',#713,#140);
#121=LINE('',#715,#141);
#122=LINE('',#718,#142);
#123=LINE('',#720,#143);
#124=VECTOR('',#498,1.);
#125=VECTOR('',#499,1.);
#126=VECTOR('',#500,1.);
#127=VECTOR('',#503,1.);
#128=VECTOR('',#504,1.);
#129=VECTOR('',#505,1.);
#130=VECTOR('',#512,1.);
#131=VECTOR('',#513,1.);
#132=VECTOR('',#514,1.);
#133=VECTOR('',#517,1.);
#134=VECTOR('',#518,1.);
#135=VECTOR('',#519,1.);
#136=VECTOR('',#524,1.);
#137=VECTOR('',#525,1.);
#138=VECTOR('',#528,1.);
#139=VECTOR('',#529,1.);
#140=VECTOR('',#598,1.);
#141=VECTOR('',#601,1.);
#142=VECTOR('',#606,1.);
#143=VECTOR('',#609,1.);
#144=FACE_BOUND('',#183,.T.);
#145=FACE_BOUND('',#184,.T.);
#146=FACE_BOUND('',#185,.T.);
#147=FACE_BOUND('',#186,.T.);
#148=FACE_BOUND('',#189,.T.);
#149=FACE_BOUND('',#190,.T.);
#150=FACE_BOUND('',#191,.T.);
#151=FACE_BOUND('',#192,.T.);
#152=FACE_BOUND('',#193,.T.);
#153=FACE_BOUND('',#194,.T.);
#154=FACE_BOUND('',#195,.T.);
#155=FACE_BOUND('',#196,.T.);
#156=FACE_BOUND('',#197,.T.);
#157=FACE_BOUND('',#198,.T.);
#158=FACE_BOUND('',#199,.T.);
#159=FACE_BOUND('',#200,.T.);
#160=FACE_BOUND('',#201,.T.);
#161=FACE_BOUND('',#202,.T.);
#162=FACE_BOUND('',#203,.T.);
#163=FACE_BOUND('',#204,.T.);
#164=FACE_BOUND('',#205,.T.);
#165=FACE_BOUND('',#206,.T.);
#166=FACE_BOUND('',#207,.T.);
#167=FACE_BOUND('',#208,.T.);
#168=FACE_BOUND('',#209,.T.);
#169=FACE_BOUND('',#210,.T.);
#170=FACE_BOUND('',#211,.T.);
#171=FACE_BOUND('',#212,.T.);
#172=FACE_BOUND('',#213,.T.);
#173=FACE_BOUND('',#214,.T.);
#174=FACE_BOUND('',#215,.T.);
#175=FACE_BOUND('',#216,.T.);
#176=FACE_BOUND('',#217,.T.);
#177=FACE_BOUND('',#218,.T.);
#178=FACE_BOUND('',#219,.T.);
#179=FACE_BOUND('',#220,.T.);
#180=FACE_BOUND('',#221,.T.);
#181=FACE_BOUND('',#222,.T.);
#182=FACE_BOUND('',#25,.T.);
#183=EDGE_LOOP('',(#229));
#184=EDGE_LOOP('',(#230,#231,#232,#233,#234,#235,#236,#237));
#185=EDGE_LOOP('',(#238));
#186=EDGE_LOOP('',(#239,#240,#241,#242,#243,#244,#245,#246));
#187=EDGE_LOOP('',(#247,#248,#249,#250));
#188=EDGE_LOOP('',(#251,#252,#253,#254));
#189=EDGE_LOOP('',(#255));
#190=EDGE_LOOP('',(#256));
#191=EDGE_LOOP('',(#257));
#192=EDGE_LOOP('',(#258));
#193=EDGE_LOOP('',(#259));
#194=EDGE_LOOP('',(#260));
#195=EDGE_LOOP('',(#261));
#196=EDGE_LOOP('',(#262));
#197=EDGE_LOOP('',(#263));
#198=EDGE_LOOP('',(#264));
#199=EDGE_LOOP('',(#265));
#200=EDGE_LOOP('',(#266));
#201=EDGE_LOOP('',(#267));
#202=EDGE_LOOP('',(#268));
#203=EDGE_LOOP('',(#269));
#204=EDGE_LOOP('',(#270));
#205=EDGE_LOOP('',(#271));
#206=EDGE_LOOP('',(#272));
#207=EDGE_LOOP('',(#273));
#208=EDGE_LOOP('',(#274));
#209=EDGE_LOOP('',(#275));
#210=EDGE_LOOP('',(#276));
#211=EDGE_LOOP('',(#277));
#212=EDGE_LOOP('',(#278));
#213=EDGE_LOOP('',(#279));
#214=EDGE_LOOP('',(#280));
#215=EDGE_LOOP('',(#281));
#216=EDGE_LOOP('',(#282));
#217=EDGE_LOOP('',(#283));
#218=EDGE_LOOP('',(#284));
#219=EDGE_LOOP('',(#285));
#220=EDGE_LOOP('',(#286));
#221=EDGE_LOOP('',(#287));
#222=EDGE_LOOP('',(#288));
#223=EDGE_LOOP('',(#289,#290,#291,#292));
#224=EDGE_LOOP('',(#293,#294,#295,#296));
#225=EDGE_LOOP('',(#297,#298,#299,#300));
#226=EDGE_LOOP('',(#301,#302,#303,#304));
#227=EDGE_LOOP('',(#305,#306,#307,#308));
#228=EDGE_LOOP('',(#309,#310,#311,#312));
#229=ORIENTED_EDGE('',*,*,#348,.T.);
#230=ORIENTED_EDGE('',*,*,#349,.T.);
#231=ORIENTED_EDGE('',*,*,#350,.T.);
#232=ORIENTED_EDGE('',*,*,#351,.T.);
#233=ORIENTED_EDGE('',*,*,#352,.F.);
#234=ORIENTED_EDGE('',*,*,#353,.F.);
#235=ORIENTED_EDGE('',*,*,#354,.F.);
#236=ORIENTED_EDGE('',*,*,#355,.F.);
#237=ORIENTED_EDGE('',*,*,#356,.F.);
#238=ORIENTED_EDGE('',*,*,#357,.T.);
#239=ORIENTED_EDGE('',*,*,#358,.T.);
#240=ORIENTED_EDGE('',*,*,#359,.T.);
#241=ORIENTED_EDGE('',*,*,#360,.T.);
#242=ORIENTED_EDGE('',*,*,#361,.T.);
#243=ORIENTED_EDGE('',*,*,#362,.F.);
#244=ORIENTED_EDGE('',*,*,#363,.F.);
#245=ORIENTED_EDGE('',*,*,#364,.F.);
#246=ORIENTED_EDGE('',*,*,#365,.F.);
#247=ORIENTED_EDGE('',*,*,#366,.F.);
#248=ORIENTED_EDGE('',*,*,#361,.F.);
#249=ORIENTED_EDGE('',*,*,#367,.T.);
#250=ORIENTED_EDGE('',*,*,#356,.T.);
#251=ORIENTED_EDGE('',*,*,#368,.F.);
#252=ORIENTED_EDGE('',*,*,#352,.T.);
#253=ORIENTED_EDGE('',*,*,#369,.T.);
#254=ORIENTED_EDGE('',*,*,#365,.T.);
#255=ORIENTED_EDGE('',*,*,#370,.T.);
#256=ORIENTED_EDGE('',*,*,#371,.T.);
#257=ORIENTED_EDGE('',*,*,#372,.T.);
#258=ORIENTED_EDGE('',*,*,#371,.F.);
#259=ORIENTED_EDGE('',*,*,#373,.T.);
#260=ORIENTED_EDGE('',*,*,#372,.F.);
#261=ORIENTED_EDGE('',*,*,#374,.T.);
#262=ORIENTED_EDGE('',*,*,#373,.F.);
#263=ORIENTED_EDGE('',*,*,#375,.T.);
#264=ORIENTED_EDGE('',*,*,#374,.F.);
#265=ORIENTED_EDGE('',*,*,#376,.T.);
#266=ORIENTED_EDGE('',*,*,#375,.F.);
#267=ORIENTED_EDGE('',*,*,#377,.T.);
#268=ORIENTED_EDGE('',*,*,#376,.F.);
#269=ORIENTED_EDGE('',*,*,#378,.T.);
#270=ORIENTED_EDGE('',*,*,#377,.F.);
#271=ORIENTED_EDGE('',*,*,#379,.T.);
#272=ORIENTED_EDGE('',*,*,#378,.F.);
#273=ORIENTED_EDGE('',*,*,#380,.T.);
#274=ORIENTED_EDGE('',*,*,#379,.F.);
#275=ORIENTED_EDGE('',*,*,#381,.T.);
#276=ORIENTED_EDGE('',*,*,#380,.F.);
#277=ORIENTED_EDGE('',*,*,#382,.T.);
#278=ORIENTED_EDGE('',*,*,#381,.F.);
#279=ORIENTED_EDGE('',*,*,#383,.T.);
#280=ORIENTED_EDGE('',*,*,#382,.F.);
#281=ORIENTED_EDGE('',*,*,#384,.T.);
#282=ORIENTED_EDGE('',*,*,#370,.F.);
#283=ORIENTED_EDGE('',*,*,#385,.T.);
#284=ORIENTED_EDGE('',*,*,#383,.F.);
#285=ORIENTED_EDGE('',*,*,#357,.F.);
#286=ORIENTED_EDGE('',*,*,#385,.F.);
#287=ORIENTED_EDGE('',*,*,#384,.F.);
#288=ORIENTED_EDGE('',*,*,#348,.F.);
#289=ORIENTED_EDGE('',*,*,#355,.T.);
#290=ORIENTED_EDGE('',*,*,#386,.F.);
#291=ORIENTED_EDGE('',*,*,#362,.T.);
#292=ORIENTED_EDGE('',*,*,#366,.T.);
#293=ORIENTED_EDGE('',*,*,#354,.T.);
#294=ORIENTED_EDGE('',*,*,#387,.F.);
#295=ORIENTED_EDGE('',*,*,#363,.T.);
#296=ORIENTED_EDGE('',*,*,#386,.T.);
#297=ORIENTED_EDGE('',*,*,#364,.T.);
#298=ORIENTED_EDGE('',*,*,#387,.T.);
#299=ORIENTED_EDGE('',*,*,#353,.T.);
#300=ORIENTED_EDGE('',*,*,#368,.T.);
#301=ORIENTED_EDGE('',*,*,#360,.F.);
#302=ORIENTED_EDGE('',*,*,#388,.T.);
#303=ORIENTED_EDGE('',*,*,#349,.F.);
#304=ORIENTED_EDGE('',*,*,#367,.F.);
#305=ORIENTED_EDGE('',*,*,#350,.F.);
#306=ORIENTED_EDGE('',*,*,#388,.F.);
#307=ORIENTED_EDGE('',*,*,#359,.F.);
#308=ORIENTED_EDGE('',*,*,#389,.T.);
#309=ORIENTED_EDGE('',*,*,#351,.F.);
#310=ORIENTED_EDGE('',*,*,#389,.F.);
#311=ORIENTED_EDGE('',*,*,#358,.F.);
#312=ORIENTED_EDGE('',*,*,#369,.F.);
#313=VERTEX_POINT('',#621);
#314=VERTEX_POINT('',#623);
#315=VERTEX_POINT('',#624);
#316=VERTEX_POINT('',#626);
#317=VERTEX_POINT('',#628);
#318=VERTEX_POINT('',#630);
#319=VERTEX_POINT('',#632);
#320=VERTEX_POINT('',#634);
#321=VERTEX_POINT('',#636);
#322=VERTEX_POINT('',#640);
#323=VERTEX_POINT('',#642);
#324=VERTEX_POINT('',#643);
#325=VERTEX_POINT('',#645);
#326=VERTEX_POINT('',#647);
#327=VERTEX_POINT('',#649);
#328=VERTEX_POINT('',#651);
#329=VERTEX_POINT('',#653);
#330=VERTEX_POINT('',#655);
#331=VERTEX_POINT('',#665);
#332=VERTEX_POINT('',#667);
#333=VERTEX_POINT('',#670);
#334=VERTEX_POINT('',#673);
#335=VERTEX_POINT('',#676);
#336=VERTEX_POINT('',#679);
#337=VERTEX_POINT('',#682);
#338=VERTEX_POINT('',#685);
#339=VERTEX_POINT('',#688);
#340=VERTEX_POINT('',#691);
#341=VERTEX_POINT('',#694);
#342=VERTEX_POINT('',#697);
#343=VERTEX_POINT('',#700);
#344=VERTEX_POINT('',#703);
#345=VERTEX_POINT('',#706);
#346=VERTEX_POINT('',#709);
#347=VERTEX_POINT('',#723);
#348=EDGE_CURVE('',#313,#313,#390,.T.);
#349=EDGE_CURVE('',#314,#315,#104,.T.);
#350=EDGE_CURVE('',#315,#316,#105,.T.);
#351=EDGE_CURVE('',#316,#317,#106,.T.);
#352=EDGE_CURVE('',#318,#317,#391,.T.);
#353=EDGE_CURVE('',#319,#318,#107,.T.);
#354=EDGE_CURVE('',#320,#319,#108,.T.);
#355=EDGE_CURVE('',#321,#320,#109,.T.);
#356=EDGE_CURVE('',#314,#321,#392,.T.);
#357=EDGE_CURVE('',#322,#322,#393,.T.);
#358=EDGE_CURVE('',#323,#324,#110,.T.);
#359=EDGE_CURVE('',#324,#325,#111,.T.);
#360=EDGE_CURVE('',#325,#326,#112,.T.);
#361=EDGE_CURVE('',#326,#327,#394,.T.);
#362=EDGE_CURVE('',#328,#327,#113,.T.);
#363=EDGE_CURVE('',#329,#328,#114,.T.);
#364=EDGE_CURVE('',#330,#329,#115,.T.);
#365=EDGE_CURVE('',#323,#330,#395,.T.);
#366=EDGE_CURVE('',#327,#321,#116,.T.);
#367=EDGE_CURVE('',#326,#314,#117,.T.);
#368=EDGE_CURVE('',#318,#330,#118,.T.);
#369=EDGE_CURVE('',#317,#323,#119,.T.);
#370=EDGE_CURVE('',#331,#331,#396,.T.);
#371=EDGE_CURVE('',#332,#332,#397,.T.);
#372=EDGE_CURVE('',#333,#333,#398,.T.);
#373=EDGE_CURVE('',#334,#334,#399,.T.);
#374=EDGE_CURVE('',#335,#335,#400,.T.);
#375=EDGE_CURVE('',#336,#336,#401,.T.);
#376=EDGE_CURVE('',#337,#337,#402,.T.);
#377=EDGE_CURVE('',#338,#338,#403,.T.);
#378=EDGE_CURVE('',#339,#339,#404,.T.);
#379=EDGE_CURVE('',#340,#340,#405,.T.);
#380=EDGE_CURVE('',#341,#341,#406,.T.);
#381=EDGE_CURVE('',#342,#342,#407,.T.);
#382=EDGE_CURVE('',#343,#343,#408,.T.);
#383=EDGE_CURVE('',#344,#344,#409,.T.);
#384=EDGE_CURVE('',#345,#345,#410,.T.);
#385=EDGE_CURVE('',#346,#346,#411,.T.);
#386=EDGE_CURVE('',#328,#320,#120,.T.);
#387=EDGE_CURVE('',#329,#319,#121,.T.);
#388=EDGE_CURVE('',#325,#315,#122,.T.);
#389=EDGE_CURVE('',#324,#316,#123,.T.);
#390=CIRCLE('',#438,28.6015064413655);
#391=CIRCLE('',#439,19.05);
#392=CIRCLE('',#440,19.05);
#393=CIRCLE('',#442,28.6015064413655);
#394=CIRCLE('',#443,19.05);
#395=CIRCLE('',#444,19.05);
#396=CIRCLE('',#448,31.59);
#397=CIRCLE('',#449,48.9401923788647);
#398=CIRCLE('',#451,49.5);
#399=CIRCLE('',#453,72.1928203230275);
#400=CIRCLE('',#455,73.1928203230275);
#401=CIRCLE('',#457,74.);
#402=CIRCLE('',#459,74.5);
#403=CIRCLE('',#461,74.5);
#404=CIRCLE('',#463,74.);
#405=CIRCLE('',#465,73.1928203230275);
#406=CIRCLE('',#467,72.1928203230275);
#407=CIRCLE('',#469,49.5);
#408=CIRCLE('',#471,48.9401923788647);
#409=CIRCLE('',#473,31.59);
#410=CIRCLE('',#475,29.5976709609103);
#411=CIRCLE('',#477,29.5976709609103);
#412=PRESENTATION_LAYER_ASSIGNMENT('1','Layer 1',(#435,#436,#437));
#413=PRESENTATION_LAYER_ASSIGNMENT('2','Layer 2',(#36));
#414=PRESENTATION_LAYER_ASSIGNMENT('3','Layer 3',(#37));
#415=STYLED_ITEM('',(#420),#435);
#416=STYLED_ITEM('',(#421),#436);
#417=STYLED_ITEM('',(#422),#437);
#418=STYLED_ITEM('',(#423),#36);
#419=STYLED_ITEM('',(#424),#37);
#420=PRESENTATION_STYLE_ASSIGNMENT((#425));
#421=PRESENTATION_STYLE_ASSIGNMENT((#426));
#422=PRESENTATION_STYLE_ASSIGNMENT((#427));
#423=PRESENTATION_STYLE_ASSIGNMENT((#26));
#424=PRESENTATION_STYLE_ASSIGNMENT((#27));
#425=CURVE_STYLE('',#431,POSITIVE_LENGTH_MEASURE(0.18),#428);
#426=CURVE_STYLE('',#432,POSITIVE_LENGTH_MEASURE(0.18),#428);
#427=CURVE_STYLE('',#433,POSITIVE_LENGTH_MEASURE(0.18),#428);
#428=COLOUR_RGB('Strong Stone',0.576470588235294,0.54508278019379,0.392156862745098);
#429=COLOUR_RGB('Medium Gray',0.490196078431373,0.490196078431373,0.490196078431373);
#430=COLOUR_RGB('Light Gray',0.8,0.8,0.8);
#431=DRAUGHTING_PRE_DEFINED_CURVE_FONT('continuous');
#432=DRAUGHTING_PRE_DEFINED_CURVE_FONT('continuous');
#433=DRAUGHTING_PRE_DEFINED_CURVE_FONT('continuous');
#434=AXIS2_PLACEMENT_3D('',#616,#488,#489);
#435=AXIS2_PLACEMENT_3D('MCS',#617,#490,#491);
#436=AXIS2_PLACEMENT_3D('PCS',#618,#492,#493);
#437=AXIS2_PLACEMENT_3D('CIP',#619,#494,#495);
#438=AXIS2_PLACEMENT_3D('',#620,#496,#497);
#439=AXIS2_PLACEMENT_3D('',#629,#501,#502);
#440=AXIS2_PLACEMENT_3D('',#637,#506,#507);
#441=AXIS2_PLACEMENT_3D('',#638,#508,#509);
#442=AXIS2_PLACEMENT_3D('',#639,#510,#511);
#443=AXIS2_PLACEMENT_3D('',#648,#515,#516);
#444=AXIS2_PLACEMENT_3D('',#656,#520,#521);
#445=AXIS2_PLACEMENT_3D('',#657,#522,#523);
#446=AXIS2_PLACEMENT_3D('',#660,#526,#527);
#447=AXIS2_PLACEMENT_3D('',#663,#530,#531);
#448=AXIS2_PLACEMENT_3D('',#664,#532,#533);
#449=AXIS2_PLACEMENT_3D('',#666,#534,#535);
#450=AXIS2_PLACEMENT_3D('',#668,#536,#537);
#451=AXIS2_PLACEMENT_3D('',#669,#538,#539);
#452=AXIS2_PLACEMENT_3D('',#671,#540,#541);
#453=AXIS2_PLACEMENT_3D('',#672,#542,#543);
#454=AXIS2_PLACEMENT_3D('',#674,#544,#545);
#455=AXIS2_PLACEMENT_3D('',#675,#546,#547);
#456=AXIS2_PLACEMENT_3D('',#677,#548,#549);
#457=AXIS2_PLACEMENT_3D('',#678,#550,#551);
#458=AXIS2_PLACEMENT_3D('',#680,#552,#553);
#459=AXIS2_PLACEMENT_3D('',#681,#554,#555);
#460=AXIS2_PLACEMENT_3D('',#683,#556,#557);
#461=AXIS2_PLACEMENT_3D('',#684,#558,#559);
#462=AXIS2_PLACEMENT_3D('',#686,#560,#561);
#463=AXIS2_PLACEMENT_3D('',#687,#562,#563);
#464=AXIS2_PLACEMENT_3D('',#689,#564,#565);
#465=AXIS2_PLACEMENT_3D('',#690,#566,#567);
#466=AXIS2_PLACEMENT_3D('',#692,#568,#569);
#467=AXIS2_PLACEMENT_3D('',#693,#570,#571);
#468=AXIS2_PLACEMENT_3D('',#695,#572,#573);
#469=AXIS2_PLACEMENT_3D('',#696,#574,#575);
#470=AXIS2_PLACEMENT_3D('',#698,#576,#577);
#471=AXIS2_PLACEMENT_3D('',#699,#578,#579);
#472=AXIS2_PLACEMENT_3D('',#701,#580,#581);
#473=AXIS2_PLACEMENT_3D('',#702,#582,#583);
#474=AXIS2_PLACEMENT_3D('',#704,#584,#585);
#475=AXIS2_PLACEMENT_3D('',#705,#586,#587);
#476=AXIS2_PLACEMENT_3D('',#707,#588,#589);
#477=AXIS2_PLACEMENT_3D('',#708,#590,#591);
#478=AXIS2_PLACEMENT_3D('',#710,#592,#593);
#479=AXIS2_PLACEMENT_3D('',#711,#594,#595);
#480=AXIS2_PLACEMENT_3D('',#712,#596,#597);
#481=AXIS2_PLACEMENT_3D('',#714,#599,#600);
#482=AXIS2_PLACEMENT_3D('',#716,#602,#603);
#483=AXIS2_PLACEMENT_3D('',#717,#604,#605);
#484=AXIS2_PLACEMENT_3D('',#719,#607,#608);
#485=AXIS2_PLACEMENT_3D('',#721,#610,#611);
#486=AXIS2_PLACEMENT_3D('',#722,#612,#613);
#487=AXIS2_PLACEMENT_3D('',#724,#614,#615);
#488=DIRECTION('',(0.,0.,1.));
#489=DIRECTION('',(1.,0.,0.));
#490=DIRECTION('',(0.,0.,1.));
#491=DIRECTION('',(1.,0.,0.));
#492=DIRECTION('',(0.,0.,1.));
#493=DIRECTION('',(1.,0.,0.));
#494=DIRECTION('',(0.,0.,1.));
#495=DIRECTION('',(1.,0.,0.));
#496=DIRECTION('',(0.,0.,-1.));
#497=DIRECTION('',(-1.,0.,0.));
#498=DIRECTION('',(1.,4.86599967080816E-16,0.));
#499=DIRECTION('',(0.,1.,0.));
#500=DIRECTION('',(-1.,4.86599967080816E-16,0.));
#501=DIRECTION('',(0.,0.,-1.));
#502=DIRECTION('',(-1.,0.,0.));
#503=DIRECTION('',(0.951056516295153,-0.309016994374948,0.));
#504=DIRECTION('',(0.309016994374942,0.951056516295155,0.));
#505=DIRECTION('',(-0.951056516295154,0.309016994374948,0.));
#506=DIRECTION('',(0.,0.,-1.));
#507=DIRECTION('',(-1.,0.,0.));
#508=DIRECTION('',(0.,0.,-1.));
#509=DIRECTION('',(-1.,0.,0.));
#510=DIRECTION('',(0.,0.,1.));
#511=DIRECTION('',(1.,0.,0.));
#512=DIRECTION('',(1.,-4.86599967080816E-16,0.));
#513=DIRECTION('',(0.,-1.,0.));
#514=DIRECTION('',(-1.,-4.86599967080816E-16,0.));
#515=DIRECTION('',(0.,0.,-1.));
#516=DIRECTION('',(1.,0.,0.));
#517=DIRECTION('',(0.951056516295154,-0.309016994374948,0.));
#518=DIRECTION('',(-0.309016994374942,-0.951056516295155,0.));
#519=DIRECTION('',(-0.951056516295153,0.309016994374948,0.));
#520=DIRECTION('',(0.,0.,1.));
#521=DIRECTION('',(1.,0.,0.));
#522=DIRECTION('',(0.,0.,1.));
#523=DIRECTION('',(1.,0.,0.));
#524=DIRECTION('',(0.,0.,-1.));
#525=DIRECTION('',(0.,0.,-1.));
#526=DIRECTION('',(0.,0.,-1.));
#527=DIRECTION('',(-1.,0.,0.));
#528=DIRECTION('',(0.,0.,1.));
#529=DIRECTION('',(0.,0.,1.));
#530=DIRECTION('',(0.,0.,-1.));
#531=DIRECTION('',(-1.,0.,0.));
#532=DIRECTION('',(0.,0.,1.));
#533=DIRECTION('',(-1.,0.,0.));
#534=DIRECTION('',(0.,0.,-1.));
#535=DIRECTION('',(-1.,0.,0.));
#536=DIRECTION('',(0.,0.,-1.));
#537=DIRECTION('',(-1.,0.,0.));
#538=DIRECTION('',(0.,0.,-1.));
#539=DIRECTION('',(-1.,0.,0.));
#540=DIRECTION('',(0.,0.,-1.));
#541=DIRECTION('',(-1.,0.,-6.42321779237532E-18));
#542=DIRECTION('',(0.,0.,-1.));
#543=DIRECTION('',(-1.,0.,0.));
#544=DIRECTION('',(0.,0.,-1.));
#545=DIRECTION('',(-1.,0.,0.));
#546=DIRECTION('',(0.,0.,-1.));
#547=DIRECTION('',(-1.,0.,0.));
#548=DIRECTION('',(0.,0.,-1.));
#549=DIRECTION('',(-1.,0.,0.));
#550=DIRECTION('',(0.,0.,-1.));
#551=DIRECTION('',(-1.,0.,0.));
#552=DIRECTION('',(0.,0.,1.));
#553=DIRECTION('',(1.,0.,4.80467968194019E-18));
#554=DIRECTION('',(0.,0.,-1.));
#555=DIRECTION('',(-1.,0.,0.));
#556=DIRECTION('',(0.,0.,-1.));
#557=DIRECTION('',(-1.,0.,0.));
#558=DIRECTION('',(0.,0.,-1.));
#559=DIRECTION('',(-1.,0.,0.));
#560=DIRECTION('',(0.,0.,-1.));
#561=DIRECTION('',(-1.,0.,0.));
#562=DIRECTION('',(0.,0.,-1.));
#563=DIRECTION('',(-1.,0.,0.));
#564=DIRECTION('',(0.,0.,-1.));
#565=DIRECTION('',(-1.,0.,0.));
#566=DIRECTION('',(0.,0.,-1.));
#567=DIRECTION('',(-1.,0.,0.));
#568=DIRECTION('',(0.,0.,-1.));
#569=DIRECTION('',(-1.,0.,-4.32227909047776E-18));
#570=DIRECTION('',(0.,0.,-1.));
#571=DIRECTION('',(-1.,0.,0.));
#572=DIRECTION('',(0.,0.,-1.));
#573=DIRECTION('',(-1.,0.,0.));
#574=DIRECTION('',(0.,0.,-1.));
#575=DIRECTION('',(-1.,0.,0.));
#576=DIRECTION('',(0.,0.,1.));
#577=DIRECTION('',(1.,0.,0.));
#578=DIRECTION('',(0.,0.,-1.));
#579=DIRECTION('',(-1.,0.,0.));
#580=DIRECTION('',(0.,0.,1.));
#581=DIRECTION('',(1.,0.,9.2893503686954E-18));
#582=DIRECTION('',(0.,0.,-1.));
#583=DIRECTION('',(1.,0.,0.));
#584=DIRECTION('',(0.,0.,1.));
#585=DIRECTION('',(1.,0.,0.));
#586=DIRECTION('',(0.,0.,1.));
#587=DIRECTION('',(-1.,0.,0.));
#588=DIRECTION('',(0.,0.,-1.));
#589=DIRECTION('',(-1.,0.,0.));
#590=DIRECTION('',(0.,0.,-1.));
#591=DIRECTION('',(1.,0.,0.));
#592=DIRECTION('',(0.,0.,1.));
#593=DIRECTION('',(1.,0.,0.));
#594=DIRECTION('',(0.,0.,-1.));
#595=DIRECTION('',(-1.,0.,0.));
#596=DIRECTION('',(0.,0.,1.));
#597=DIRECTION('',(1.,0.,0.));
#598=DIRECTION('',(0.,0.,-1.));
#599=DIRECTION('',(-0.309016994374948,-0.951056516295153,0.));
#600=DIRECTION('',(0.951056516295153,-0.309016994374948,0.));
#601=DIRECTION('',(0.,0.,-1.));
#602=DIRECTION('',(-0.951056516295155,0.309016994374942,0.));
#603=DIRECTION('',(-0.309016994374942,-0.951056516295155,0.));
#604=DIRECTION('',(0.309016994374948,0.951056516295153,0.));
#605=DIRECTION('',(-0.951056516295153,0.309016994374948,0.));
#606=DIRECTION('',(0.,0.,-1.));
#607=DIRECTION('',(-4.86599967080816E-16,1.,0.));
#608=DIRECTION('',(-1.,-4.86589935011494E-16,0.));
#609=DIRECTION('',(0.,0.,-1.));
#610=DIRECTION('',(-1.,0.,0.));
#611=DIRECTION('',(0.,0.,1.));
#612=DIRECTION('',(-4.86599967080816E-16,-1.,0.));
#613=DIRECTION('',(1.,-4.86589935011494E-16,0.));
#614=DIRECTION('',(0.,0.,1.));
#615=DIRECTION('',(1.,0.,0.));
#616=CARTESIAN_POINT('',(0.,0.,0.));
#617=CARTESIAN_POINT('',(0.,0.,0.));
#618=CARTESIAN_POINT('',(0.,0.,0.));
#619=CARTESIAN_POINT('',(0.,0.,-14.00014551979));
#620=CARTESIAN_POINT('',(0.,0.,-15.875));
#621=CARTESIAN_POINT('',(-28.6015064413655,0.,-15.875));
#622=CARTESIAN_POINT('',(15.2200222222222,-4.76,-15.875));
#623=CARTESIAN_POINT('',(18.4457285028269,-4.76,-15.875));
#624=CARTESIAN_POINT('',(22.35,-4.76,-15.875));
#625=CARTESIAN_POINT('',(22.35,-4.75999999999999,-15.875));
#626=CARTESIAN_POINT('',(22.35,4.75999999999999,-15.875));
#627=CARTESIAN_POINT('',(22.35,4.75999999999999,-15.875));
#628=CARTESIAN_POINT('',(18.4457285028269,4.75999999999999,-15.875));
#629=CARTESIAN_POINT('',(0.,0.,-15.875));
#630=CARTESIAN_POINT('',(-16.0720093972,10.2270725985648,-15.875));
#631=CARTESIAN_POINT('',(-19.7851922459719,11.433558841845,-15.875));
#632=CARTESIAN_POINT('',(-19.785192245972,11.433558841845,-15.875));
#633=CARTESIAN_POINT('',(-22.7270340324214,2.37950080671513,-15.875));
#634=CARTESIAN_POINT('',(-22.7270340324214,2.37950080671513,-15.875));
#635=CARTESIAN_POINT('',(-15.9460222058241,0.17621650386539,-15.875));
#636=CARTESIAN_POINT('',(-19.0138511836495,1.17301456343493,-15.875));
#637=CARTESIAN_POINT('',(0.,0.,-15.875));
#638=CARTESIAN_POINT('',(0.,-19.05,-15.875));
#639=CARTESIAN_POINT('',(0.,0.,0.));
#640=CARTESIAN_POINT('',(28.6015064413655,0.,0.));
#641=CARTESIAN_POINT('',(1.6714708869226E-14,4.76,0.));
#642=CARTESIAN_POINT('',(18.4457285028269,4.76,0.));
#643=CARTESIAN_POINT('',(22.35,4.75999999999999,0.));
#644=CARTESIAN_POINT('',(22.35,-29.59,0.));
#645=CARTESIAN_POINT('',(22.35,-4.76,0.));
#646=CARTESIAN_POINT('',(-1.20822771826167E-14,-4.76,0.));
#647=CARTESIAN_POINT('',(18.4457285028269,-4.76,0.));
#648=CARTESIAN_POINT('',(0.,0.,0.));
#649=CARTESIAN_POINT('',(-19.0138511836495,1.17301456343494,0.));
#650=CARTESIAN_POINT('',(7.2253619144424,-7.35262258578759,0.));
#651=CARTESIAN_POINT('',(-22.7270340324214,2.37950080671513,0.));
#652=CARTESIAN_POINT('',(-29.9523959468637,-19.8578766074975,0.));
#653=CARTESIAN_POINT('',(-19.785192245972,11.433558841845,0.));
#654=CARTESIAN_POINT('',(10.1672037008919,1.70143544934223,0.));
#655=CARTESIAN_POINT('',(-16.0720093972,10.2270725985648,0.));
#656=CARTESIAN_POINT('',(0.,0.,0.));
#657=CARTESIAN_POINT('',(0.,-29.59,0.));
#658=CARTESIAN_POINT('',(-19.0138511836495,1.17301456343493,-7.9375));
#659=CARTESIAN_POINT('',(18.4457285028269,-4.76,-7.9375));
#660=CARTESIAN_POINT('',(0.,0.,-7.9375));
#661=CARTESIAN_POINT('',(-16.0720093972,10.2270725985648,-7.9375));
#662=CARTESIAN_POINT('',(18.4457285028269,4.76,-7.9375));
#663=CARTESIAN_POINT('',(0.,0.,-7.9375));
#664=CARTESIAN_POINT('',(0.,0.,-13.1375));
#665=CARTESIAN_POINT('',(-31.59,0.,-13.1375));
#666=CARTESIAN_POINT('',(0.,0.,-13.1375));
#667=CARTESIAN_POINT('',(-48.9401923788647,0.,-13.1375));
#668=CARTESIAN_POINT('',(0.,-29.59,-13.1375));
#669=CARTESIAN_POINT('',(0.,0.,-13.2875));
#670=CARTESIAN_POINT('',(-49.5,0.,-13.2875));
#671=CARTESIAN_POINT('',(0.,0.,-13.1375));
#672=CARTESIAN_POINT('',(0.,0.,-13.2875));
#673=CARTESIAN_POINT('',(-72.1928203230275,0.,-13.2875));
#674=CARTESIAN_POINT('',(0.,-49.5,-13.2875));
#675=CARTESIAN_POINT('',(0.,0.,-13.0195508075689));
#676=CARTESIAN_POINT('',(-73.1928203230275,0.,-13.0195508075689));
#677=CARTESIAN_POINT('',(0.,0.,-11.2875));
#678=CARTESIAN_POINT('',(0.,0.,-12.5535254037844));
#679=CARTESIAN_POINT('',(-74.,0.,-12.5535254037844));
#680=CARTESIAN_POINT('',(0.,0.,-13.0195508075689));
#681=CARTESIAN_POINT('',(0.,0.,-11.6875));
#682=CARTESIAN_POINT('',(-74.5,0.,-11.6875));
#683=CARTESIAN_POINT('',(0.,0.,-11.6875));
#684=CARTESIAN_POINT('',(0.,0.,-4.18750000000002));
#685=CARTESIAN_POINT('',(-74.5,0.,-4.18750000000002));
#686=CARTESIAN_POINT('',(0.,0.,-7.9375));
#687=CARTESIAN_POINT('',(0.,0.,-3.32147459621556));
#688=CARTESIAN_POINT('',(-74.,0.,-3.32147459621556));
#689=CARTESIAN_POINT('',(0.,0.,-4.18750000000002));
#690=CARTESIAN_POINT('',(0.,0.,-2.85544919243112));
#691=CARTESIAN_POINT('',(-73.1928203230275,0.,-2.85544919243112));
#692=CARTESIAN_POINT('',(0.,0.,-3.32147459621556));
#693=CARTESIAN_POINT('',(0.,0.,-2.58749999999999));
#694=CARTESIAN_POINT('',(-72.1928203230275,0.,-2.58749999999999));
#695=CARTESIAN_POINT('',(0.,0.,-4.58750000000002));
#696=CARTESIAN_POINT('',(0.,0.,-2.5875));
#697=CARTESIAN_POINT('',(-49.5,0.,-2.5875));
#698=CARTESIAN_POINT('',(0.,-72.1928203230275,-2.58749999999999));
#699=CARTESIAN_POINT('',(0.,0.,-2.73749999999999));
#700=CARTESIAN_POINT('',(-48.9401923788647,0.,-2.73749999999999));
#701=CARTESIAN_POINT('',(0.,0.,-2.5875));
#702=CARTESIAN_POINT('',(0.,0.,-2.7375));
#703=CARTESIAN_POINT('',(31.59,0.,-2.7375));
#704=CARTESIAN_POINT('',(0.,-48.9401923788647,-2.7375));
#705=CARTESIAN_POINT('',(0.,0.,-14.9625));
#706=CARTESIAN_POINT('',(-29.5976709609103,0.,-14.9625));
#707=CARTESIAN_POINT('',(0.,0.,-15.1375));
#708=CARTESIAN_POINT('',(0.,0.,-0.912500000000002));
#709=CARTESIAN_POINT('',(29.5976709609103,0.,-0.912500000000002));
#710=CARTESIAN_POINT('',(0.,0.,-0.737499999999997));
#711=CARTESIAN_POINT('',(0.,0.,-1.));
#712=CARTESIAN_POINT('',(0.,0.,-14.875));
#713=CARTESIAN_POINT('',(-22.7270340324214,2.37950080671513,25.625));
#714=CARTESIAN_POINT('',(-15.9460222058241,0.17621650386539,25.625));
#715=CARTESIAN_POINT('',(-19.785192245972,11.433558841845,25.625));
#716=CARTESIAN_POINT('',(-22.7270340324214,2.37950080671513,25.625));
#717=CARTESIAN_POINT('',(-19.7851922459719,11.433558841845,25.625));
#718=CARTESIAN_POINT('',(22.35,-4.76,25.625));
#719=CARTESIAN_POINT('',(15.2200222222222,-4.76,25.625));
#720=CARTESIAN_POINT('',(22.35,4.75999999999999,25.625));
#721=CARTESIAN_POINT('',(22.35,-4.75999999999999,25.625));
#722=CARTESIAN_POINT('',(22.35,4.75999999999999,25.625));
#723=CARTESIAN_POINT('',(77.2,0.,-7.905));
#724=CARTESIAN_POINT('',(0.,0.,-7.905));
#725=MECHANICAL_DESIGN_GEOMETRIC_PRESENTATION_REPRESENTATION('',(#415,#416,
#417,#418,#419),#726);
#726=(
GEOMETRIC_REPRESENTATION_CONTEXT(3)
GLOBAL_UNCERTAINTY_ASSIGNED_CONTEXT((#727))
GLOBAL_UNIT_ASSIGNED_CONTEXT((#733,#729,#728))
REPRESENTATION_CONTEXT('335.18-06','TOP_LEVEL_ASSEMBLY_PART')
);
#727=UNCERTAINTY_MEASURE_WITH_UNIT(LENGTH_MEASURE(2.E-5),#733,
'DISTANCE_ACCURACY_VALUE','Maximum Tolerance applied to model');
#728=(
NAMED_UNIT(*)
SI_UNIT($,.STERADIAN.)
SOLID_ANGLE_UNIT()
);
#729=(
CONVERSION_BASED_UNIT('DEGREE',#731)
NAMED_UNIT(#730)
PLANE_ANGLE_UNIT()
);
#730=DIMENSIONAL_EXPONENTS(0.,0.,0.,0.,0.,0.,0.);
#731=PLANE_ANGLE_MEASURE_WITH_UNIT(PLANE_ANGLE_MEASURE(0.0174532925),#732);
#732=(
NAMED_UNIT(*)
PLANE_ANGLE_UNIT()
SI_UNIT($,.RADIAN.)
);
#733=(
LENGTH_UNIT()
NAMED_UNIT(*)
SI_UNIT(.MILLI.,.METRE.)
);
ENDSEC;
END-ISO-10303-21;
