ISO-10303-21;
HEADER;
/* Generated by software containing ST-Developer
 * from STEP Tools, Inc. (www.steptools.com) 
 */
/* OPTION: using custom schema-name function */

FILE_DESCRIPTION(
/* description */ (''),
/* implementation_level */ '2;1');

FILE_NAME(
/* name */ '335.18-05.00-0809R-R6_stp.stp',
/* time_stamp */ '2020-08-07T19:07:49+06:00',
/* author */ (''),
/* organization */ (''),
/* preprocessor_version */ 'ST-DEVELOPER v16.7',
/* originating_system */ 'SIEMENS PLM Software NX 12.0',
/* authorisation */ '');

FILE_SCHEMA (('AUTOMOTIVE_DESIGN { 1 0 10303 214 3 1 1 1 }'));
ENDSEC;

DATA;
#10=CONSTRUCTIVE_GEOMETRY_REPRESENTATION_RELATIONSHIP(
'supplemental geometry','',#24,#11);
#11=CONSTRUCTIVE_GEOMETRY_REPRESENTATION('supplemental geometry',(#419,
#420,#421,#422),#698);
#12=SHAPE_REPRESENTATION_RELATIONSHIP('None',
'relationship between 335.18-05.00-0809R-R6_stp-None and 335.18-05.00-
0809R-R6_stp-None',#24,#13);
#13=ADVANCED_BREP_SHAPE_REPRESENTATION('335.18-05.00-0809R-R6_stp-None',
(#270,#271),#698);
#14=SHAPE_DEFINITION_REPRESENTATION(#15,#24);
#15=PRODUCT_DEFINITION_SHAPE('','',#16);
#16=PRODUCT_DEFINITION(' ','',#18,#17);
#17=PRODUCT_DEFINITION_CONTEXT('part definition',#23,'design');
#18=PRODUCT_DEFINITION_FORMATION_WITH_SPECIFIED_SOURCE(' ',' ',#20,
 .NOT_KNOWN.);
#19=PRODUCT_RELATED_PRODUCT_CATEGORY('part','',(#20));
#20=PRODUCT('335.18-05.00-0809R-R6_stp','335.18-05.00-0809R-R6_stp',' ',
(#21));
#21=PRODUCT_CONTEXT(' ',#23,'mechanical');
#22=APPLICATION_PROTOCOL_DEFINITION('international standard',
'automotive_design',2010,#23);
#23=APPLICATION_CONTEXT(
'core data for automotive mechanical design processes');
#24=SHAPE_REPRESENTATION('335.18-05.00-0809R-R6_stp-None',(#418),#698);
#25=FACE_OUTER_BOUND('',#116,.T.);
#26=FACE_OUTER_BOUND('',#133,.T.);
#27=FACE_OUTER_BOUND('',#134,.T.);
#28=FACE_OUTER_BOUND('',#135,.T.);
#29=FACE_OUTER_BOUND('',#136,.T.);
#30=FACE_OUTER_BOUND('',#137,.T.);
#31=FACE_OUTER_BOUND('',#138,.T.);
#32=FACE_OUTER_BOUND('',#139,.T.);
#33=LINE('',#629,#53);
#34=LINE('',#634,#54);
#35=LINE('',#638,#55);
#36=LINE('',#641,#56);
#37=LINE('',#642,#57);
#38=LINE('',#644,#58);
#39=LINE('',#646,#59);
#40=LINE('',#650,#60);
#41=LINE('',#654,#61);
#42=LINE('',#656,#62);
#43=LINE('',#658,#63);
#44=LINE('',#662,#64);
#45=LINE('',#664,#65);
#46=LINE('',#666,#66);
#47=LINE('',#684,#67);
#48=LINE('',#685,#68);
#49=LINE('',#687,#69);
#50=LINE('',#688,#70);
#51=LINE('',#692,#71);
#52=LINE('',#693,#72);
#53=VECTOR('',#520,1.);
#54=VECTOR('',#523,1.);
#55=VECTOR('',#528,1.);
#56=VECTOR('',#529,1.);
#57=VECTOR('',#530,1.);
#58=VECTOR('',#531,1.);
#59=VECTOR('',#532,1.);
#60=VECTOR('',#535,1.);
#61=VECTOR('',#540,1.);
#62=VECTOR('',#541,1.);
#63=VECTOR('',#542,1.);
#64=VECTOR('',#545,1.);
#65=VECTOR('',#546,1.);
#66=VECTOR('',#547,1.);
#67=VECTOR('',#572,1.);
#68=VECTOR('',#573,1.);
#69=VECTOR('',#576,1.);
#70=VECTOR('',#577,1.);
#71=VECTOR('',#584,1.);
#72=VECTOR('',#585,1.);
#73=CYLINDRICAL_SURFACE('',#434,61.6);
#74=CYLINDRICAL_SURFACE('',#445,19.05);
#75=CYLINDRICAL_SURFACE('',#462,19.05);
#76=CONICAL_SURFACE('',#430,60.3320508075689,59.9999999999983);
#77=CONICAL_SURFACE('',#438,61.1,60.0000000000015);
#78=CONICAL_SURFACE('',#458,28.8286010460552,84.9999999999954);
#79=CONICAL_SURFACE('',#460,28.8286010460552,84.9999999999993);
#80=TOROIDAL_SURFACE('',#428,59.3320508075689,2.);
#81=TOROIDAL_SURFACE('',#432,60.6,1.00000000000001);
#82=TOROIDAL_SURFACE('',#436,60.6,1.00000000000001);
#83=TOROIDAL_SURFACE('',#440,59.3320508075689,2.);
#84=TOROIDAL_SURFACE('',#453,31.6851016090607,2.);
#85=TOROIDAL_SURFACE('',#455,31.6851016090607,2.);
#86=TOROIDAL_SURFACE('',#457,28.7414453033075,0.999999999999982);
#87=TOROIDAL_SURFACE('',#461,28.7414453033075,0.999999999999985);
#88=PLANE('',#426);
#89=PLANE('',#442);
#90=PLANE('',#448);
#91=PLANE('',#451);
#92=PLANE('',#463);
#93=PLANE('',#464);
#94=PLANE('',#465);
#95=PLANE('',#466);
#96=PLANE('',#467);
#97=PLANE('',#468);
#98=EDGE_LOOP('',(#140));
#99=EDGE_LOOP('',(#141));
#100=EDGE_LOOP('',(#142));
#101=EDGE_LOOP('',(#143));
#102=EDGE_LOOP('',(#144));
#103=EDGE_LOOP('',(#145));
#104=EDGE_LOOP('',(#146));
#105=EDGE_LOOP('',(#147));
#106=EDGE_LOOP('',(#148));
#107=EDGE_LOOP('',(#149));
#108=EDGE_LOOP('',(#150));
#109=EDGE_LOOP('',(#151));
#110=EDGE_LOOP('',(#152));
#111=EDGE_LOOP('',(#153));
#112=EDGE_LOOP('',(#154));
#113=EDGE_LOOP('',(#155));
#114=EDGE_LOOP('',(#156));
#115=EDGE_LOOP('',(#157));
#116=EDGE_LOOP('',(#158,#159,#160,#161));
#117=EDGE_LOOP('',(#162,#163,#164,#165,#166,#167,#168,#169));
#118=EDGE_LOOP('',(#170));
#119=EDGE_LOOP('',(#171,#172,#173,#174,#175,#176,#177,#178));
#120=EDGE_LOOP('',(#179));
#121=EDGE_LOOP('',(#180));
#122=EDGE_LOOP('',(#181));
#123=EDGE_LOOP('',(#182));
#124=EDGE_LOOP('',(#183));
#125=EDGE_LOOP('',(#184));
#126=EDGE_LOOP('',(#185));
#127=EDGE_LOOP('',(#186));
#128=EDGE_LOOP('',(#187));
#129=EDGE_LOOP('',(#188));
#130=EDGE_LOOP('',(#189));
#131=EDGE_LOOP('',(#190));
#132=EDGE_LOOP('',(#191));
#133=EDGE_LOOP('',(#192,#193,#194,#195));
#134=EDGE_LOOP('',(#196,#197,#198,#199));
#135=EDGE_LOOP('',(#200,#201,#202,#203));
#136=EDGE_LOOP('',(#204,#205,#206,#207));
#137=EDGE_LOOP('',(#208,#209,#210,#211));
#138=EDGE_LOOP('',(#212,#213,#214,#215));
#139=EDGE_LOOP('',(#216,#217,#218,#219));
#140=ORIENTED_EDGE('',*,*,#220,.F.);
#141=ORIENTED_EDGE('',*,*,#221,.T.);
#142=ORIENTED_EDGE('',*,*,#222,.F.);
#143=ORIENTED_EDGE('',*,*,#220,.T.);
#144=ORIENTED_EDGE('',*,*,#223,.F.);
#145=ORIENTED_EDGE('',*,*,#222,.T.);
#146=ORIENTED_EDGE('',*,*,#224,.F.);
#147=ORIENTED_EDGE('',*,*,#223,.T.);
#148=ORIENTED_EDGE('',*,*,#225,.F.);
#149=ORIENTED_EDGE('',*,*,#224,.T.);
#150=ORIENTED_EDGE('',*,*,#226,.F.);
#151=ORIENTED_EDGE('',*,*,#225,.T.);
#152=ORIENTED_EDGE('',*,*,#227,.F.);
#153=ORIENTED_EDGE('',*,*,#226,.T.);
#154=ORIENTED_EDGE('',*,*,#228,.F.);
#155=ORIENTED_EDGE('',*,*,#227,.T.);
#156=ORIENTED_EDGE('',*,*,#228,.T.);
#157=ORIENTED_EDGE('',*,*,#229,.F.);
#158=ORIENTED_EDGE('',*,*,#230,.T.);
#159=ORIENTED_EDGE('',*,*,#231,.T.);
#160=ORIENTED_EDGE('',*,*,#232,.T.);
#161=ORIENTED_EDGE('',*,*,#233,.T.);
#162=ORIENTED_EDGE('',*,*,#234,.T.);
#163=ORIENTED_EDGE('',*,*,#235,.T.);
#164=ORIENTED_EDGE('',*,*,#231,.F.);
#165=ORIENTED_EDGE('',*,*,#236,.T.);
#166=ORIENTED_EDGE('',*,*,#237,.T.);
#167=ORIENTED_EDGE('',*,*,#238,.T.);
#168=ORIENTED_EDGE('',*,*,#239,.F.);
#169=ORIENTED_EDGE('',*,*,#240,.T.);
#170=ORIENTED_EDGE('',*,*,#241,.T.);
#171=ORIENTED_EDGE('',*,*,#242,.F.);
#172=ORIENTED_EDGE('',*,*,#243,.F.);
#173=ORIENTED_EDGE('',*,*,#244,.F.);
#174=ORIENTED_EDGE('',*,*,#245,.T.);
#175=ORIENTED_EDGE('',*,*,#246,.F.);
#176=ORIENTED_EDGE('',*,*,#247,.F.);
#177=ORIENTED_EDGE('',*,*,#248,.F.);
#178=ORIENTED_EDGE('',*,*,#233,.F.);
#179=ORIENTED_EDGE('',*,*,#249,.F.);
#180=ORIENTED_EDGE('',*,*,#221,.F.);
#181=ORIENTED_EDGE('',*,*,#250,.T.);
#182=ORIENTED_EDGE('',*,*,#229,.T.);
#183=ORIENTED_EDGE('',*,*,#251,.F.);
#184=ORIENTED_EDGE('',*,*,#252,.F.);
#185=ORIENTED_EDGE('',*,*,#251,.T.);
#186=ORIENTED_EDGE('',*,*,#241,.F.);
#187=ORIENTED_EDGE('',*,*,#252,.T.);
#188=ORIENTED_EDGE('',*,*,#249,.T.);
#189=ORIENTED_EDGE('',*,*,#253,.F.);
#190=ORIENTED_EDGE('',*,*,#253,.T.);
#191=ORIENTED_EDGE('',*,*,#250,.F.);
#192=ORIENTED_EDGE('',*,*,#254,.T.);
#193=ORIENTED_EDGE('',*,*,#245,.F.);
#194=ORIENTED_EDGE('',*,*,#255,.T.);
#195=ORIENTED_EDGE('',*,*,#239,.T.);
#196=ORIENTED_EDGE('',*,*,#256,.F.);
#197=ORIENTED_EDGE('',*,*,#247,.T.);
#198=ORIENTED_EDGE('',*,*,#257,.T.);
#199=ORIENTED_EDGE('',*,*,#237,.F.);
#200=ORIENTED_EDGE('',*,*,#257,.F.);
#201=ORIENTED_EDGE('',*,*,#246,.T.);
#202=ORIENTED_EDGE('',*,*,#254,.F.);
#203=ORIENTED_EDGE('',*,*,#238,.F.);
#204=ORIENTED_EDGE('',*,*,#236,.F.);
#205=ORIENTED_EDGE('',*,*,#230,.F.);
#206=ORIENTED_EDGE('',*,*,#248,.T.);
#207=ORIENTED_EDGE('',*,*,#256,.T.);
#208=ORIENTED_EDGE('',*,*,#258,.F.);
#209=ORIENTED_EDGE('',*,*,#243,.T.);
#210=ORIENTED_EDGE('',*,*,#259,.T.);
#211=ORIENTED_EDGE('',*,*,#234,.F.);
#212=ORIENTED_EDGE('',*,*,#259,.F.);
#213=ORIENTED_EDGE('',*,*,#242,.T.);
#214=ORIENTED_EDGE('',*,*,#232,.F.);
#215=ORIENTED_EDGE('',*,*,#235,.F.);
#216=ORIENTED_EDGE('',*,*,#240,.F.);
#217=ORIENTED_EDGE('',*,*,#255,.F.);
#218=ORIENTED_EDGE('',*,*,#244,.T.);
#219=ORIENTED_EDGE('',*,*,#258,.T.);
#220=EDGE_CURVE('',#360,#360,#303,.T.);
#221=EDGE_CURVE('',#361,#361,#304,.T.);
#222=EDGE_CURVE('',#362,#362,#305,.T.);
#223=EDGE_CURVE('',#363,#363,#306,.T.);
#224=EDGE_CURVE('',#364,#364,#307,.T.);
#225=EDGE_CURVE('',#365,#365,#308,.T.);
#226=EDGE_CURVE('',#366,#366,#309,.T.);
#227=EDGE_CURVE('',#367,#367,#310,.T.);
#228=EDGE_CURVE('',#368,#368,#311,.T.);
#229=EDGE_CURVE('',#369,#369,#312,.T.);
#230=EDGE_CURVE('',#370,#371,#33,.T.);
#231=EDGE_CURVE('',#371,#372,#313,.T.);
#232=EDGE_CURVE('',#372,#373,#34,.T.);
#233=EDGE_CURVE('',#373,#370,#314,.T.);
#234=EDGE_CURVE('',#374,#375,#35,.T.);
#235=EDGE_CURVE('',#375,#372,#36,.T.);
#236=EDGE_CURVE('',#371,#376,#37,.T.);
#237=EDGE_CURVE('',#376,#377,#38,.T.);
#238=EDGE_CURVE('',#377,#378,#39,.T.);
#239=EDGE_CURVE('',#379,#378,#315,.T.);
#240=EDGE_CURVE('',#379,#374,#40,.T.);
#241=EDGE_CURVE('',#380,#380,#316,.T.);
#242=EDGE_CURVE('',#381,#373,#41,.T.);
#243=EDGE_CURVE('',#382,#381,#42,.T.);
#244=EDGE_CURVE('',#383,#382,#43,.T.);
#245=EDGE_CURVE('',#383,#384,#317,.T.);
#246=EDGE_CURVE('',#385,#384,#44,.T.);
#247=EDGE_CURVE('',#386,#385,#45,.T.);
#248=EDGE_CURVE('',#370,#386,#46,.T.);
#249=EDGE_CURVE('',#387,#387,#318,.T.);
#250=EDGE_CURVE('',#388,#388,#319,.T.);
#251=EDGE_CURVE('',#389,#389,#320,.T.);
#252=EDGE_CURVE('',#390,#390,#321,.T.);
#253=EDGE_CURVE('',#391,#391,#322,.T.);
#254=EDGE_CURVE('',#378,#384,#47,.T.);
#255=EDGE_CURVE('',#383,#379,#48,.T.);
#256=EDGE_CURVE('',#386,#376,#49,.T.);
#257=EDGE_CURVE('',#385,#377,#50,.T.);
#258=EDGE_CURVE('',#382,#374,#51,.T.);
#259=EDGE_CURVE('',#381,#375,#52,.T.);
#260=SURFACE_STYLE_USAGE(.BOTH.,#262);
#261=SURFACE_STYLE_USAGE(.BOTH.,#263);
#262=SURFACE_SIDE_STYLE('',(#264));
#263=SURFACE_SIDE_STYLE('',(#265));
#264=SURFACE_STYLE_FILL_AREA(#266);
#265=SURFACE_STYLE_FILL_AREA(#267);
#266=FILL_AREA_STYLE('',(#268));
#267=FILL_AREA_STYLE('',(#269));
#268=FILL_AREA_STYLE_COLOUR('',#412);
#269=FILL_AREA_STYLE_COLOUR('',#413);
#270=MANIFOLD_SOLID_BREP('CUT',#272);
#271=MANIFOLD_SOLID_BREP('NOCUT',#273);
#272=CLOSED_SHELL('',(#274));
#273=CLOSED_SHELL('',(#275,#276,#277,#278,#279,#280,#281,#282,#283,#284,
#285,#286,#287,#288,#289,#290,#291,#292,#293,#294,#295,#296,#297,#298,#299));
#274=ADVANCED_FACE('',(#323),#300,.T.);
#275=ADVANCED_FACE('',(#324,#325),#88,.F.);
#276=ADVANCED_FACE('',(#326,#327),#80,.T.);
#277=ADVANCED_FACE('',(#328,#329),#76,.T.);
#278=ADVANCED_FACE('',(#330,#331),#81,.T.);
#279=ADVANCED_FACE('',(#332,#333),#73,.T.);
#280=ADVANCED_FACE('',(#334,#335),#82,.T.);
#281=ADVANCED_FACE('',(#336,#337),#77,.T.);
#282=ADVANCED_FACE('',(#338,#339),#83,.T.);
#283=ADVANCED_FACE('',(#340,#341),#89,.F.);
#284=ADVANCED_FACE('',(#25),#74,.F.);
#285=ADVANCED_FACE('',(#342,#343),#90,.F.);
#286=ADVANCED_FACE('',(#344,#345),#91,.T.);
#287=ADVANCED_FACE('',(#346,#347),#84,.F.);
#288=ADVANCED_FACE('',(#348,#349),#85,.F.);
#289=ADVANCED_FACE('',(#350,#351),#86,.T.);
#290=ADVANCED_FACE('',(#352,#353),#78,.T.);
#291=ADVANCED_FACE('',(#354,#355),#79,.T.);
#292=ADVANCED_FACE('',(#356,#357),#87,.T.);
#293=ADVANCED_FACE('',(#26),#75,.F.);
#294=ADVANCED_FACE('',(#27),#92,.F.);
#295=ADVANCED_FACE('',(#28),#93,.F.);
#296=ADVANCED_FACE('',(#29),#94,.F.);
#297=ADVANCED_FACE('',(#30),#95,.F.);
#298=ADVANCED_FACE('',(#31),#96,.F.);
#299=ADVANCED_FACE('',(#32),#97,.F.);
#300=SURFACE_OF_REVOLUTION('',#302,#301);
#301=AXIS1_PLACEMENT('',#599,#481);
#302=CIRCLE('',#423,5.9);
#303=CIRCLE('',#424,59.3320508075689);
#304=CIRCLE('',#425,31.6851016090607);
#305=CIRCLE('',#427,60.3320508075689);
#306=CIRCLE('',#429,61.1);
#307=CIRCLE('',#431,61.6);
#308=CIRCLE('',#433,61.6);
#309=CIRCLE('',#435,61.1);
#310=CIRCLE('',#437,60.3320508075689);
#311=CIRCLE('',#439,59.3320508075689);
#312=CIRCLE('',#441,31.6851016090607);
#313=CIRCLE('',#443,19.05);
#314=CIRCLE('',#444,19.05);
#315=CIRCLE('',#446,19.05);
#316=CIRCLE('',#447,28.6);
#317=CIRCLE('',#449,19.05);
#318=CIRCLE('',#450,28.6);
#319=CIRCLE('',#452,29.7226640718919);
#320=CIRCLE('',#454,29.7226640718919);
#321=CIRCLE('',#456,28.8286010460552);
#322=CIRCLE('',#459,28.8286010460552);
#323=FACE_BOUND('',#358,.T.);
#324=FACE_BOUND('',#98,.T.);
#325=FACE_BOUND('',#99,.T.);
#326=FACE_BOUND('',#100,.T.);
#327=FACE_BOUND('',#101,.T.);
#328=FACE_BOUND('',#102,.T.);
#329=FACE_BOUND('',#103,.T.);
#330=FACE_BOUND('',#104,.T.);
#331=FACE_BOUND('',#105,.T.);
#332=FACE_BOUND('',#106,.T.);
#333=FACE_BOUND('',#107,.T.);
#334=FACE_BOUND('',#108,.T.);
#335=FACE_BOUND('',#109,.T.);
#336=FACE_BOUND('',#110,.T.);
#337=FACE_BOUND('',#111,.T.);
#338=FACE_BOUND('',#112,.T.);
#339=FACE_BOUND('',#113,.T.);
#340=FACE_BOUND('',#114,.T.);
#341=FACE_BOUND('',#115,.T.);
#342=FACE_BOUND('',#117,.T.);
#343=FACE_BOUND('',#118,.T.);
#344=FACE_BOUND('',#119,.T.);
#345=FACE_BOUND('',#120,.T.);
#346=FACE_BOUND('',#121,.T.);
#347=FACE_BOUND('',#122,.T.);
#348=FACE_BOUND('',#123,.T.);
#349=FACE_BOUND('',#124,.T.);
#350=FACE_BOUND('',#125,.T.);
#351=FACE_BOUND('',#126,.T.);
#352=FACE_BOUND('',#127,.T.);
#353=FACE_BOUND('',#128,.T.);
#354=FACE_BOUND('',#129,.T.);
#355=FACE_BOUND('',#130,.T.);
#356=FACE_BOUND('',#131,.T.);
#357=FACE_BOUND('',#132,.T.);
#358=VERTEX_LOOP('',#359);
#359=VERTEX_POINT('',#597);
#360=VERTEX_POINT('',#601);
#361=VERTEX_POINT('',#603);
#362=VERTEX_POINT('',#606);
#363=VERTEX_POINT('',#609);
#364=VERTEX_POINT('',#612);
#365=VERTEX_POINT('',#615);
#366=VERTEX_POINT('',#618);
#367=VERTEX_POINT('',#621);
#368=VERTEX_POINT('',#624);
#369=VERTEX_POINT('',#627);
#370=VERTEX_POINT('',#630);
#371=VERTEX_POINT('',#631);
#372=VERTEX_POINT('',#633);
#373=VERTEX_POINT('',#635);
#374=VERTEX_POINT('',#639);
#375=VERTEX_POINT('',#640);
#376=VERTEX_POINT('',#643);
#377=VERTEX_POINT('',#645);
#378=VERTEX_POINT('',#647);
#379=VERTEX_POINT('',#649);
#380=VERTEX_POINT('',#652);
#381=VERTEX_POINT('',#655);
#382=VERTEX_POINT('',#657);
#383=VERTEX_POINT('',#659);
#384=VERTEX_POINT('',#661);
#385=VERTEX_POINT('',#663);
#386=VERTEX_POINT('',#665);
#387=VERTEX_POINT('',#668);
#388=VERTEX_POINT('',#671);
#389=VERTEX_POINT('',#674);
#390=VERTEX_POINT('',#677);
#391=VERTEX_POINT('',#681);
#392=PRESENTATION_LAYER_ASSIGNMENT('1','Layer 1',(#419,#420,#421,#422));
#393=PRESENTATION_LAYER_ASSIGNMENT('3','Layer 3',(#270));
#394=PRESENTATION_LAYER_ASSIGNMENT('2','Layer 2',(#271));
#395=STYLED_ITEM('',(#401),#419);
#396=STYLED_ITEM('',(#402),#420);
#397=STYLED_ITEM('',(#403),#421);
#398=STYLED_ITEM('',(#404),#422);
#399=STYLED_ITEM('',(#405),#270);
#400=STYLED_ITEM('',(#406),#271);
#401=PRESENTATION_STYLE_ASSIGNMENT((#407));
#402=PRESENTATION_STYLE_ASSIGNMENT((#408));
#403=PRESENTATION_STYLE_ASSIGNMENT((#409));
#404=PRESENTATION_STYLE_ASSIGNMENT((#410));
#405=PRESENTATION_STYLE_ASSIGNMENT((#260));
#406=PRESENTATION_STYLE_ASSIGNMENT((#261));
#407=CURVE_STYLE('',#414,POSITIVE_LENGTH_MEASURE(0.13),#411);
#408=CURVE_STYLE('',#415,POSITIVE_LENGTH_MEASURE(0.18),#411);
#409=CURVE_STYLE('',#416,POSITIVE_LENGTH_MEASURE(0.18),#411);
#410=CURVE_STYLE('',#417,POSITIVE_LENGTH_MEASURE(0.18),#411);
#411=COLOUR_RGB('Strong Stone',0.576470588235294,0.54508278019379,0.392156862745098);
#412=COLOUR_RGB('Light Gray',0.8,0.8,0.8);
#413=COLOUR_RGB('Medium Gray',0.490196078431373,0.490196078431373,0.490196078431373);
#414=DRAUGHTING_PRE_DEFINED_CURVE_FONT('continuous');
#415=DRAUGHTING_PRE_DEFINED_CURVE_FONT('continuous');
#416=DRAUGHTING_PRE_DEFINED_CURVE_FONT('continuous');
#417=DRAUGHTING_PRE_DEFINED_CURVE_FONT('continuous');
#418=AXIS2_PLACEMENT_3D('',#592,#469,#470);
#419=AXIS2_PLACEMENT_3D('',#593,#471,#472);
#420=AXIS2_PLACEMENT_3D('MCS',#594,#473,#474);
#421=AXIS2_PLACEMENT_3D('PCS',#595,#475,#476);
#422=AXIS2_PLACEMENT_3D('CIP',#596,#477,#478);
#423=AXIS2_PLACEMENT_3D('',#598,#479,#480);
#424=AXIS2_PLACEMENT_3D('',#600,#482,#483);
#425=AXIS2_PLACEMENT_3D('',#602,#484,#485);
#426=AXIS2_PLACEMENT_3D('',#604,#486,#487);
#427=AXIS2_PLACEMENT_3D('',#605,#488,#489);
#428=AXIS2_PLACEMENT_3D('',#607,#490,#491);
#429=AXIS2_PLACEMENT_3D('',#608,#492,#493);
#430=AXIS2_PLACEMENT_3D('',#610,#494,#495);
#431=AXIS2_PLACEMENT_3D('',#611,#496,#497);
#432=AXIS2_PLACEMENT_3D('',#613,#498,#499);
#433=AXIS2_PLACEMENT_3D('',#614,#500,#501);
#434=AXIS2_PLACEMENT_3D('',#616,#502,#503);
#435=AXIS2_PLACEMENT_3D('',#617,#504,#505);
#436=AXIS2_PLACEMENT_3D('',#619,#506,#507);
#437=AXIS2_PLACEMENT_3D('',#620,#508,#509);
#438=AXIS2_PLACEMENT_3D('',#622,#510,#511);
#439=AXIS2_PLACEMENT_3D('',#623,#512,#513);
#440=AXIS2_PLACEMENT_3D('',#625,#514,#515);
#441=AXIS2_PLACEMENT_3D('',#626,#516,#517);
#442=AXIS2_PLACEMENT_3D('',#628,#518,#519);
#443=AXIS2_PLACEMENT_3D('',#632,#521,#522);
#444=AXIS2_PLACEMENT_3D('',#636,#524,#525);
#445=AXIS2_PLACEMENT_3D('',#637,#526,#527);
#446=AXIS2_PLACEMENT_3D('',#648,#533,#534);
#447=AXIS2_PLACEMENT_3D('',#651,#536,#537);
#448=AXIS2_PLACEMENT_3D('',#653,#538,#539);
#449=AXIS2_PLACEMENT_3D('',#660,#543,#544);
#450=AXIS2_PLACEMENT_3D('',#667,#548,#549);
#451=AXIS2_PLACEMENT_3D('',#669,#550,#551);
#452=AXIS2_PLACEMENT_3D('',#670,#552,#553);
#453=AXIS2_PLACEMENT_3D('',#672,#554,#555);
#454=AXIS2_PLACEMENT_3D('',#673,#556,#557);
#455=AXIS2_PLACEMENT_3D('',#675,#558,#559);
#456=AXIS2_PLACEMENT_3D('',#676,#560,#561);
#457=AXIS2_PLACEMENT_3D('',#678,#562,#563);
#458=AXIS2_PLACEMENT_3D('',#679,#564,#565);
#459=AXIS2_PLACEMENT_3D('',#680,#566,#567);
#460=AXIS2_PLACEMENT_3D('',#682,#568,#569);
#461=AXIS2_PLACEMENT_3D('',#683,#570,#571);
#462=AXIS2_PLACEMENT_3D('',#686,#574,#575);
#463=AXIS2_PLACEMENT_3D('',#689,#578,#579);
#464=AXIS2_PLACEMENT_3D('',#690,#580,#581);
#465=AXIS2_PLACEMENT_3D('',#691,#582,#583);
#466=AXIS2_PLACEMENT_3D('',#694,#586,#587);
#467=AXIS2_PLACEMENT_3D('',#695,#588,#589);
#468=AXIS2_PLACEMENT_3D('',#696,#590,#591);
#469=DIRECTION('',(0.,0.,1.));
#470=DIRECTION('',(1.,0.,0.));
#471=DIRECTION('',(0.,0.,1.));
#472=DIRECTION('',(1.,0.,0.));
#473=DIRECTION('',(0.,0.,1.));
#474=DIRECTION('',(1.,0.,0.));
#475=DIRECTION('',(0.,0.,1.));
#476=DIRECTION('',(1.,0.,0.));
#477=DIRECTION('',(0.,0.,1.));
#478=DIRECTION('',(1.,0.,0.));
#479=DIRECTION('',(-0.104291064179608,0.993175538236243,-0.0522084684838987));
#480=DIRECTION('',(0.994505294806888,0.104622609729634,0.00365077175753238));
#481=DIRECTION('',(0.,0.,-1.));
#482=DIRECTION('',(0.,0.,-1.));
#483=DIRECTION('',(-1.,0.,0.));
#484=DIRECTION('',(0.,0.,-1.));
#485=DIRECTION('',(-1.,0.,0.));
#486=DIRECTION('',(0.,0.,-1.));
#487=DIRECTION('',(1.,0.,0.));
#488=DIRECTION('',(0.,0.,-1.));
#489=DIRECTION('',(-1.,0.,0.));
#490=DIRECTION('',(0.,0.,-1.));
#491=DIRECTION('',(1.,0.,0.));
#492=DIRECTION('',(0.,0.,-1.));
#493=DIRECTION('',(-1.,0.,0.));
#494=DIRECTION('',(0.,0.,-1.));
#495=DIRECTION('',(1.,0.,5.78278949752442E-17));
#496=DIRECTION('',(0.,0.,-1.));
#497=DIRECTION('',(-1.,0.,0.));
#498=DIRECTION('',(0.,0.,-1.));
#499=DIRECTION('',(1.,0.,0.));
#500=DIRECTION('',(0.,0.,-1.));
#501=DIRECTION('',(-1.,0.,0.));
#502=DIRECTION('',(0.,0.,-1.));
#503=DIRECTION('',(1.,0.,0.));
#504=DIRECTION('',(0.,0.,-1.));
#505=DIRECTION('',(-1.,0.,0.));
#506=DIRECTION('',(0.,0.,-1.));
#507=DIRECTION('',(1.,0.,0.));
#508=DIRECTION('',(0.,0.,-1.));
#509=DIRECTION('',(-1.,0.,0.));
#510=DIRECTION('',(0.,0.,1.));
#511=DIRECTION('',(-1.,0.,-2.90224916162285E-17));
#512=DIRECTION('',(0.,0.,-1.));
#513=DIRECTION('',(-1.,0.,0.));
#514=DIRECTION('',(0.,0.,-1.));
#515=DIRECTION('',(1.,0.,0.));
#516=DIRECTION('',(0.,0.,-1.));
#517=DIRECTION('',(-1.,0.,0.));
#518=DIRECTION('',(0.,0.,1.));
#519=DIRECTION('',(-1.,0.,0.));
#520=DIRECTION('',(0.,0.,-1.));
#521=DIRECTION('',(0.,0.,-1.));
#522=DIRECTION('',(1.,0.,0.));
#523=DIRECTION('',(0.,0.,1.));
#524=DIRECTION('',(0.,0.,1.));
#525=DIRECTION('',(1.,0.,0.));
#526=DIRECTION('',(0.,0.,-1.));
#527=DIRECTION('',(-1.,0.,0.));
#528=DIRECTION('',(0.309016994374948,-0.951056516295154,0.));
#529=DIRECTION('',(0.951056516295154,0.309016994374948,0.));
#530=DIRECTION('',(1.,2.64554778471408E-16,0.));
#531=DIRECTION('',(0.,1.,0.));
#532=DIRECTION('',(-1.,-2.64554778471408E-16,0.));
#533=DIRECTION('',(0.,0.,-1.));
#534=DIRECTION('',(1.,0.,0.));
#535=DIRECTION('',(-0.951056516295154,-0.309016994374948,0.));
#536=DIRECTION('',(0.,0.,-1.));
#537=DIRECTION('',(-1.,0.,0.));
#538=DIRECTION('',(0.,0.,1.));
#539=DIRECTION('',(1.,0.,0.));
#540=DIRECTION('',(0.951056516295154,0.309016994374948,0.));
#541=DIRECTION('',(0.309016994374948,-0.951056516295154,0.));
#542=DIRECTION('',(-0.951056516295154,-0.309016994374948,0.));
#543=DIRECTION('',(0.,0.,-1.));
#544=DIRECTION('',(1.,0.,0.));
#545=DIRECTION('',(-1.,-2.64554778471408E-16,0.));
#546=DIRECTION('',(0.,1.,0.));
#547=DIRECTION('',(1.,2.64554778471408E-16,0.));
#548=DIRECTION('',(0.,0.,-1.));
#549=DIRECTION('',(-1.,0.,0.));
#550=DIRECTION('',(0.,0.,1.));
#551=DIRECTION('',(1.,0.,0.));
#552=DIRECTION('',(0.,0.,-1.));
#553=DIRECTION('',(-1.,0.,0.));
#554=DIRECTION('',(0.,0.,-1.));
#555=DIRECTION('',(-1.,0.,0.));
#556=DIRECTION('',(0.,0.,-1.));
#557=DIRECTION('',(-1.,0.,0.));
#558=DIRECTION('',(0.,0.,-1.));
#559=DIRECTION('',(-1.,0.,0.));
#560=DIRECTION('',(0.,0.,-1.));
#561=DIRECTION('',(-1.,0.,0.));
#562=DIRECTION('',(0.,0.,-1.));
#563=DIRECTION('',(-1.,0.,0.));
#564=DIRECTION('',(0.,0.,1.));
#565=DIRECTION('',(1.,0.,4.23883080164108E-18));
#566=DIRECTION('',(0.,0.,-1.));
#567=DIRECTION('',(-1.,0.,0.));
#568=DIRECTION('',(0.,0.,-1.));
#569=DIRECTION('',(-1.,0.,7.11429324206237E-18));
#570=DIRECTION('',(0.,0.,-1.));
#571=DIRECTION('',(-1.,0.,0.));
#572=DIRECTION('',(0.,0.,1.));
#573=DIRECTION('',(0.,0.,-1.));
#574=DIRECTION('',(0.,0.,-1.));
#575=DIRECTION('',(-1.,0.,0.));
#576=DIRECTION('',(0.,0.,-1.));
#577=DIRECTION('',(0.,0.,-1.));
#578=DIRECTION('',(1.,0.,0.));
#579=DIRECTION('',(0.,0.,-1.));
#580=DIRECTION('',(-2.64554778471408E-16,1.,0.));
#581=DIRECTION('',(-1.,-2.64545330086463E-16,0.));
#582=DIRECTION('',(2.64554778471408E-16,-1.,0.));
#583=DIRECTION('',(1.,2.64545330086463E-16,0.));
#584=DIRECTION('',(0.,0.,-1.));
#585=DIRECTION('',(0.,0.,-1.));
#586=DIRECTION('',(-0.951056516295154,-0.309016994374948,0.));
#587=DIRECTION('',(0.,0.,-1.));
#588=DIRECTION('',(0.309016994374948,-0.951056516295153,0.));
#589=DIRECTION('',(0.951056516295153,0.309016994374948,0.));
#590=DIRECTION('',(-0.309016994374948,0.951056516295153,0.));
#591=DIRECTION('',(-0.951056516295153,-0.309016994374948,0.));
#592=CARTESIAN_POINT('',(0.,0.,0.));
#593=CARTESIAN_POINT('',(0.,0.,0.));
#594=CARTESIAN_POINT('',(0.,0.,0.));
#595=CARTESIAN_POINT('',(0.,0.,0.));
#596=CARTESIAN_POINT('',(0.,0.,-13.8));
#597=CARTESIAN_POINT('',(64.409875467036,0.009747609282502,-7.89406143739945));
#598=CARTESIAN_POINT('',(58.5422942276754,-0.607525788122341,-7.91560099076889));
#599=CARTESIAN_POINT('',(0.,0.,-7.9375));
#600=CARTESIAN_POINT('',(0.,0.,-2.43749999999998));
#601=CARTESIAN_POINT('',(-59.3320508075689,0.,-2.43749999999998));
#602=CARTESIAN_POINT('',(0.,0.,-2.43749999999998));
#603=CARTESIAN_POINT('',(-31.6851016090607,0.,-2.43749999999998));
#604=CARTESIAN_POINT('',(30.1343223547712,9.79123486569675,-2.43749999999998));
#605=CARTESIAN_POINT('',(0.,0.,-2.70544919243109));
#606=CARTESIAN_POINT('',(-60.3320508075689,0.,-2.70544919243109));
#607=CARTESIAN_POINT('',(0.,0.,-4.43749999999997));
#608=CARTESIAN_POINT('',(0.,0.,-3.14882486540515));
#609=CARTESIAN_POINT('',(-61.1,0.,-3.14882486540515));
#610=CARTESIAN_POINT('',(0.,0.,-2.70544919243109));
#611=CARTESIAN_POINT('',(0.,0.,-4.01485026918959));
#612=CARTESIAN_POINT('',(-61.6,0.,-4.01485026918959));
#613=CARTESIAN_POINT('',(0.,0.,-4.01485026918959));
#614=CARTESIAN_POINT('',(0.,0.,-11.8601497308104));
#615=CARTESIAN_POINT('',(-61.6,0.,-11.8601497308104));
#616=CARTESIAN_POINT('',(0.,0.,-7.9375));
#617=CARTESIAN_POINT('',(0.,0.,-12.7261751345949));
#618=CARTESIAN_POINT('',(-61.1,0.,-12.7261751345949));
#619=CARTESIAN_POINT('',(0.,0.,-11.8601497308104));
#620=CARTESIAN_POINT('',(0.,0.,-13.1695508075689));
#621=CARTESIAN_POINT('',(-60.3320508075689,0.,-13.1695508075689));
#622=CARTESIAN_POINT('',(0.,0.,-12.7261751345949));
#623=CARTESIAN_POINT('',(0.,0.,-13.4375));
#624=CARTESIAN_POINT('',(-59.3320508075689,0.,-13.4375));
#625=CARTESIAN_POINT('',(0.,0.,-11.4375));
#626=CARTESIAN_POINT('',(0.,0.,-13.4375));
#627=CARTESIAN_POINT('',(-31.6851016090607,0.,-13.4375));
#628=CARTESIAN_POINT('',(56.4281335456935,18.3346120106566,-13.4375));
#629=CARTESIAN_POINT('',(18.4457285028269,-4.75999999999999,1.5));
#630=CARTESIAN_POINT('',(18.4457285028269,-4.75999999999999,0.));
#631=CARTESIAN_POINT('',(18.4457285028269,-4.75999999999999,-15.875));
#632=CARTESIAN_POINT('',(0.,0.,-15.875));
#633=CARTESIAN_POINT('',(-16.0720093972,-10.2270725985648,-15.875));
#634=CARTESIAN_POINT('',(-16.0720093972,-10.2270725985648,1.5));
#635=CARTESIAN_POINT('',(-16.0720093972,-10.2270725985648,0.));
#636=CARTESIAN_POINT('',(0.,0.,0.));
#637=CARTESIAN_POINT('',(0.,0.,1.5));
#638=CARTESIAN_POINT('',(-19.4761126750536,-15.6208759264374,-15.875));
#639=CARTESIAN_POINT('',(-23.6780905487166,-2.68851780109012,-15.875));
#640=CARTESIAN_POINT('',(-20.7362487622671,-11.74257583622,-15.875));
#641=CARTESIAN_POINT('',(27.3398639127865,3.87830009021745,-15.875));
#642=CARTESIAN_POINT('',(28.6,-4.75999999999999,-15.875));
#643=CARTESIAN_POINT('',(23.35,-4.75999999999999,-15.875));
#644=CARTESIAN_POINT('',(23.35,0.,-15.875));
#645=CARTESIAN_POINT('',(23.35,4.76000000000001,-15.875));
#646=CARTESIAN_POINT('',(28.6,4.76000000000001,-15.875));
#647=CARTESIAN_POINT('',(18.4457285028269,4.76000000000001,-15.875));
#648=CARTESIAN_POINT('',(0.,0.,-15.875));
#649=CARTESIAN_POINT('',(-19.0138511836495,-1.17301456343495,-15.875));
#650=CARTESIAN_POINT('',(24.398022126337,12.9323581253473,-15.875));
#651=CARTESIAN_POINT('',(0.,0.,-15.875));
#652=CARTESIAN_POINT('',(-28.6,0.,-15.875));
#653=CARTESIAN_POINT('',(28.6,0.,-15.875));
#654=CARTESIAN_POINT('',(27.3398639127865,3.87830009021744,0.));
#655=CARTESIAN_POINT('',(-20.7362487622671,-11.74257583622,0.));
#656=CARTESIAN_POINT('',(-19.4761126750536,-15.6208759264374,0.));
#657=CARTESIAN_POINT('',(-23.6780905487166,-2.68851780109012,0.));
#658=CARTESIAN_POINT('',(24.398022126337,12.9323581253473,0.));
#659=CARTESIAN_POINT('',(-19.0138511836495,-1.17301456343494,0.));
#660=CARTESIAN_POINT('',(0.,0.,0.));
#661=CARTESIAN_POINT('',(18.4457285028269,4.76000000000001,0.));
#662=CARTESIAN_POINT('',(28.6,4.76000000000001,0.));
#663=CARTESIAN_POINT('',(23.35,4.76000000000001,0.));
#664=CARTESIAN_POINT('',(23.35,0.,0.));
#665=CARTESIAN_POINT('',(23.35,-4.75999999999999,0.));
#666=CARTESIAN_POINT('',(28.6,-4.75999999999999,0.));
#667=CARTESIAN_POINT('',(0.,0.,1.04083408558608E-14));
#668=CARTESIAN_POINT('',(-28.6,0.,1.04083408558608E-14));
#669=CARTESIAN_POINT('',(28.6,0.,0.));
#670=CARTESIAN_POINT('',(0.,0.,-0.82329646539448));
#671=CARTESIAN_POINT('',(-29.7226640718919,0.,-0.82329646539448));
#672=CARTESIAN_POINT('',(0.,0.,-0.43749999999999));
#673=CARTESIAN_POINT('',(0.,0.,-15.0517035346055));
#674=CARTESIAN_POINT('',(-29.7226640718919,0.,-15.0517035346055));
#675=CARTESIAN_POINT('',(0.,0.,-15.4375));
#676=CARTESIAN_POINT('',(0.,0.,-15.855));
#677=CARTESIAN_POINT('',(-28.8286010460552,0.,-15.855));
#678=CARTESIAN_POINT('',(0.,0.,-14.8588053019083));
#679=CARTESIAN_POINT('',(0.,0.,-15.855));
#680=CARTESIAN_POINT('',(0.,0.,-0.0199999999999905));
#681=CARTESIAN_POINT('',(-28.8286010460552,0.,-0.0199999999999905));
#682=CARTESIAN_POINT('',(0.,0.,-0.0199999999999905));
#683=CARTESIAN_POINT('',(0.,0.,-1.01619469809173));
#684=CARTESIAN_POINT('',(18.4457285028269,4.76000000000001,1.5));
#685=CARTESIAN_POINT('',(-19.0138511836495,-1.17301456343494,1.5));
#686=CARTESIAN_POINT('',(0.,0.,1.5));
#687=CARTESIAN_POINT('',(23.35,-4.75999999999999,1.5));
#688=CARTESIAN_POINT('',(23.35,4.76000000000001,1.5));
#689=CARTESIAN_POINT('',(23.35,4.36,1.5));
#690=CARTESIAN_POINT('',(-5.27984367381175E-17,4.76,1.5));
#691=CARTESIAN_POINT('',(22.95,-4.75999999999999,1.5));
#692=CARTESIAN_POINT('',(-23.6780905487166,-2.68851780109012,1.5));
#693=CARTESIAN_POINT('',(-20.7362487622671,-11.74257583622,1.5));
#694=CARTESIAN_POINT('',(-20.8598555600171,-11.3621532297019,1.5));
#695=CARTESIAN_POINT('',(1.47092089322475,-4.52702901756493,1.5));
#696=CARTESIAN_POINT('',(-23.2976679421985,-2.56491100334012,1.5));
#697=MECHANICAL_DESIGN_GEOMETRIC_PRESENTATION_REPRESENTATION('',(#395,#396,
#397,#398,#399,#400),#698);
#698=(
GEOMETRIC_REPRESENTATION_CONTEXT(3)
GLOBAL_UNCERTAINTY_ASSIGNED_CONTEXT((#699))
GLOBAL_UNIT_ASSIGNED_CONTEXT((#705,#701,#700))
REPRESENTATION_CONTEXT('335.18-05','TOP_LEVEL_ASSEMBLY_PART')
);
#699=UNCERTAINTY_MEASURE_WITH_UNIT(LENGTH_MEASURE(2.E-5),#705,
'DISTANCE_ACCURACY_VALUE','Maximum Tolerance applied to model');
#700=(
NAMED_UNIT(*)
SI_UNIT($,.STERADIAN.)
SOLID_ANGLE_UNIT()
);
#701=(
CONVERSION_BASED_UNIT('DEGREE',#703)
NAMED_UNIT(#702)
PLANE_ANGLE_UNIT()
);
#702=DIMENSIONAL_EXPONENTS(0.,0.,0.,0.,0.,0.,0.);
#703=PLANE_ANGLE_MEASURE_WITH_UNIT(PLANE_ANGLE_MEASURE(0.0174532925),#704);
#704=(
NAMED_UNIT(*)
PLANE_ANGLE_UNIT()
SI_UNIT($,.RADIAN.)
);
#705=(
LENGTH_UNIT()
NAMED_UNIT(*)
SI_UNIT(.MILLI.,.METRE.)
);
ENDSEC;
END-ISO-10303-21;
