ISO-10303-21;
HEADER;
/* Generated by software containing ST-Developer
 * from STEP Tools, Inc. (www.steptools.com) 
 */
/* OPTION: using custom schema-name function */

FILE_DESCRIPTION(
/* description */ (''),
/* implementation_level */ '2;1');

FILE_NAME(
/* name */ '335.18-05.00-0809L-R6.stp',
/* time_stamp */ '2020-06-04T11:36:47+05:00',
/* author */ (''),
/* organization */ (''),
/* preprocessor_version */ 'ST-DEVELOPER v16.7',
/* originating_system */ 'SIEMENS PLM Software NX 12.0',
/* authorisation */ '');

FILE_SCHEMA (('AUTOMOTIVE_DESIGN { 1 0 10303 214 3 1 1 1 }'));
ENDSEC;

DATA;
#10=CONSTRUCTIVE_GEOMETRY_REPRESENTATION_RELATIONSHIP(
'supplemental geometry','',#24,#11);
#11=CONSTRUCTIVE_GEOMETRY_REPRESENTATION('supplemental geometry',(#391,
#392,#393),#646);
#12=SHAPE_REPRESENTATION_RELATIONSHIP('None',
'relationship between 335.18-05.00-0809L-R6-None and 335.18-05.00-0809
L-R6-None',#24,#13);
#13=ADVANCED_BREP_SHAPE_REPRESENTATION('335.18-05.00-0809L-R6-None',(#36,
#37),#646);
#14=SHAPE_DEFINITION_REPRESENTATION(#15,#24);
#15=PRODUCT_DEFINITION_SHAPE('','',#16);
#16=PRODUCT_DEFINITION(' ','',#18,#17);
#17=PRODUCT_DEFINITION_CONTEXT('part definition',#23,'design');
#18=PRODUCT_DEFINITION_FORMATION_WITH_SPECIFIED_SOURCE(' ',' ',#20,
 .NOT_KNOWN.);
#19=PRODUCT_RELATED_PRODUCT_CATEGORY('part','',(#20));
#20=PRODUCT('335.18-05.00-0809L-R6','335.18-05.00-0809L-R6',' ',(#21));
#21=PRODUCT_CONTEXT(' ',#23,'mechanical');
#22=APPLICATION_PROTOCOL_DEFINITION('international standard',
'automotive_design',2010,#23);
#23=APPLICATION_CONTEXT(
'core data for automotive mechanical design processes');
#24=SHAPE_REPRESENTATION('335.18-05.00-0809L-R6-None',(#390),#646);
#25=VERTEX_LOOP('',#311);
#26=SURFACE_STYLE_USAGE(.BOTH.,#28);
#27=SURFACE_STYLE_USAGE(.BOTH.,#29);
#28=SURFACE_SIDE_STYLE('',(#30));
#29=SURFACE_SIDE_STYLE('',(#31));
#30=SURFACE_STYLE_FILL_AREA(#32);
#31=SURFACE_STYLE_FILL_AREA(#33);
#32=FILL_AREA_STYLE('',(#34));
#33=FILL_AREA_STYLE('',(#35));
#34=FILL_AREA_STYLE_COLOUR('',#385);
#35=FILL_AREA_STYLE_COLOUR('',#386);
#36=MANIFOLD_SOLID_BREP('NOCUT',#38);
#37=MANIFOLD_SOLID_BREP('CUT',#39);
#38=CLOSED_SHELL('',(#62,#63,#64,#65,#66,#67,#68,#69,#70,#71,#72,#73,#74,
#75,#76,#77,#78,#79,#80,#81,#82,#83,#84));
#39=CLOSED_SHELL('',(#85));
#40=CONICAL_SURFACE('',#413,60.2928203230276,60.0000000000002);
#41=CONICAL_SURFACE('',#421,61.1,59.9999999999998);
#42=TOROIDAL_SURFACE('',#405,28.6,0.999999999999999);
#43=TOROIDAL_SURFACE('',#407,31.5467938085316,2.);
#44=TOROIDAL_SURFACE('',#411,59.2928203230276,2.);
#45=TOROIDAL_SURFACE('',#415,60.6,1.);
#46=TOROIDAL_SURFACE('',#419,60.6,1.);
#47=TOROIDAL_SURFACE('',#423,59.2928203230276,2.00000000000003);
#48=TOROIDAL_SURFACE('',#427,31.5467938085316,2.);
#49=TOROIDAL_SURFACE('',#428,28.6,0.999999999999999);
#50=TOROIDAL_SURFACE('',#435,58.5,6.);
#51=CYLINDRICAL_SURFACE('',#402,19.05);
#52=CYLINDRICAL_SURFACE('',#403,19.05);
#53=CYLINDRICAL_SURFACE('',#417,61.6);
#54=FACE_OUTER_BOUND('',#171,.T.);
#55=FACE_OUTER_BOUND('',#172,.T.);
#56=FACE_OUTER_BOUND('',#199,.T.);
#57=FACE_OUTER_BOUND('',#200,.T.);
#58=FACE_OUTER_BOUND('',#201,.T.);
#59=FACE_OUTER_BOUND('',#202,.T.);
#60=FACE_OUTER_BOUND('',#203,.T.);
#61=FACE_OUTER_BOUND('',#204,.T.);
#62=ADVANCED_FACE('',(#136,#137),#86,.T.);
#63=ADVANCED_FACE('',(#138,#139),#87,.T.);
#64=ADVANCED_FACE('',(#54),#51,.F.);
#65=ADVANCED_FACE('',(#55),#52,.F.);
#66=ADVANCED_FACE('',(#140,#141),#42,.T.);
#67=ADVANCED_FACE('',(#142,#143),#43,.F.);
#68=ADVANCED_FACE('',(#144,#145),#88,.T.);
#69=ADVANCED_FACE('',(#146,#147),#44,.T.);
#70=ADVANCED_FACE('',(#148,#149),#40,.T.);
#71=ADVANCED_FACE('',(#150,#151),#45,.T.);
#72=ADVANCED_FACE('',(#152,#153),#53,.T.);
#73=ADVANCED_FACE('',(#154,#155),#46,.T.);
#74=ADVANCED_FACE('',(#156,#157),#41,.T.);
#75=ADVANCED_FACE('',(#158,#159),#47,.T.);
#76=ADVANCED_FACE('',(#160,#161),#89,.T.);
#77=ADVANCED_FACE('',(#162,#163),#48,.F.);
#78=ADVANCED_FACE('',(#164,#165),#49,.T.);
#79=ADVANCED_FACE('',(#56),#90,.T.);
#80=ADVANCED_FACE('',(#57),#91,.T.);
#81=ADVANCED_FACE('',(#58),#92,.T.);
#82=ADVANCED_FACE('',(#59),#93,.T.);
#83=ADVANCED_FACE('',(#60),#94,.T.);
#84=ADVANCED_FACE('',(#61),#95,.T.);
#85=ADVANCED_FACE('',(#166),#50,.T.);
#86=PLANE('',#397);
#87=PLANE('',#401);
#88=PLANE('',#409);
#89=PLANE('',#425);
#90=PLANE('',#429);
#91=PLANE('',#430);
#92=PLANE('',#431);
#93=PLANE('',#432);
#94=PLANE('',#433);
#95=PLANE('',#434);
#96=LINE('',#554,#116);
#97=LINE('',#557,#117);
#98=LINE('',#559,#118);
#99=LINE('',#563,#119);
#100=LINE('',#565,#120);
#101=LINE('',#567,#121);
#102=LINE('',#573,#122);
#103=LINE('',#576,#123);
#104=LINE('',#578,#124);
#105=LINE('',#582,#125);
#106=LINE('',#584,#126);
#107=LINE('',#586,#127);
#108=LINE('',#590,#128);
#109=LINE('',#591,#129);
#110=LINE('',#593,#130);
#111=LINE('',#594,#131);
#112=LINE('',#633,#132);
#113=LINE('',#635,#133);
#114=LINE('',#638,#134);
#115=LINE('',#640,#135);
#116=VECTOR('',#446,1.);
#117=VECTOR('',#447,1.);
#118=VECTOR('',#448,1.);
#119=VECTOR('',#451,1.);
#120=VECTOR('',#452,1.);
#121=VECTOR('',#453,1.);
#122=VECTOR('',#460,1.);
#123=VECTOR('',#461,1.);
#124=VECTOR('',#462,1.);
#125=VECTOR('',#465,1.);
#126=VECTOR('',#466,1.);
#127=VECTOR('',#467,1.);
#128=VECTOR('',#472,1.);
#129=VECTOR('',#473,1.);
#130=VECTOR('',#476,1.);
#131=VECTOR('',#477,1.);
#132=VECTOR('',#530,1.);
#133=VECTOR('',#533,1.);
#134=VECTOR('',#538,1.);
#135=VECTOR('',#541,1.);
#136=FACE_BOUND('',#167,.T.);
#137=FACE_BOUND('',#168,.T.);
#138=FACE_BOUND('',#169,.T.);
#139=FACE_BOUND('',#170,.T.);
#140=FACE_BOUND('',#173,.T.);
#141=FACE_BOUND('',#174,.T.);
#142=FACE_BOUND('',#175,.T.);
#143=FACE_BOUND('',#176,.T.);
#144=FACE_BOUND('',#177,.T.);
#145=FACE_BOUND('',#178,.T.);
#146=FACE_BOUND('',#179,.T.);
#147=FACE_BOUND('',#180,.T.);
#148=FACE_BOUND('',#181,.T.);
#149=FACE_BOUND('',#182,.T.);
#150=FACE_BOUND('',#183,.T.);
#151=FACE_BOUND('',#184,.T.);
#152=FACE_BOUND('',#185,.T.);
#153=FACE_BOUND('',#186,.T.);
#154=FACE_BOUND('',#187,.T.);
#155=FACE_BOUND('',#188,.T.);
#156=FACE_BOUND('',#189,.T.);
#157=FACE_BOUND('',#190,.T.);
#158=FACE_BOUND('',#191,.T.);
#159=FACE_BOUND('',#192,.T.);
#160=FACE_BOUND('',#193,.T.);
#161=FACE_BOUND('',#194,.T.);
#162=FACE_BOUND('',#195,.T.);
#163=FACE_BOUND('',#196,.T.);
#164=FACE_BOUND('',#197,.T.);
#165=FACE_BOUND('',#198,.T.);
#166=FACE_BOUND('',#25,.T.);
#167=EDGE_LOOP('',(#205));
#168=EDGE_LOOP('',(#206,#207,#208,#209,#210,#211,#212,#213));
#169=EDGE_LOOP('',(#214));
#170=EDGE_LOOP('',(#215,#216,#217,#218,#219,#220,#221,#222));
#171=EDGE_LOOP('',(#223,#224,#225,#226));
#172=EDGE_LOOP('',(#227,#228,#229,#230));
#173=EDGE_LOOP('',(#231));
#174=EDGE_LOOP('',(#232));
#175=EDGE_LOOP('',(#233));
#176=EDGE_LOOP('',(#234));
#177=EDGE_LOOP('',(#235));
#178=EDGE_LOOP('',(#236));
#179=EDGE_LOOP('',(#237));
#180=EDGE_LOOP('',(#238));
#181=EDGE_LOOP('',(#239));
#182=EDGE_LOOP('',(#240));
#183=EDGE_LOOP('',(#241));
#184=EDGE_LOOP('',(#242));
#185=EDGE_LOOP('',(#243));
#186=EDGE_LOOP('',(#244));
#187=EDGE_LOOP('',(#245));
#188=EDGE_LOOP('',(#246));
#189=EDGE_LOOP('',(#247));
#190=EDGE_LOOP('',(#248));
#191=EDGE_LOOP('',(#249));
#192=EDGE_LOOP('',(#250));
#193=EDGE_LOOP('',(#251));
#194=EDGE_LOOP('',(#252));
#195=EDGE_LOOP('',(#253));
#196=EDGE_LOOP('',(#254));
#197=EDGE_LOOP('',(#255));
#198=EDGE_LOOP('',(#256));
#199=EDGE_LOOP('',(#257,#258,#259,#260));
#200=EDGE_LOOP('',(#261,#262,#263,#264));
#201=EDGE_LOOP('',(#265,#266,#267,#268));
#202=EDGE_LOOP('',(#269,#270,#271,#272));
#203=EDGE_LOOP('',(#273,#274,#275,#276));
#204=EDGE_LOOP('',(#277,#278,#279,#280));
#205=ORIENTED_EDGE('',*,*,#312,.T.);
#206=ORIENTED_EDGE('',*,*,#313,.T.);
#207=ORIENTED_EDGE('',*,*,#314,.T.);
#208=ORIENTED_EDGE('',*,*,#315,.T.);
#209=ORIENTED_EDGE('',*,*,#316,.T.);
#210=ORIENTED_EDGE('',*,*,#317,.T.);
#211=ORIENTED_EDGE('',*,*,#318,.T.);
#212=ORIENTED_EDGE('',*,*,#319,.T.);
#213=ORIENTED_EDGE('',*,*,#320,.F.);
#214=ORIENTED_EDGE('',*,*,#321,.F.);
#215=ORIENTED_EDGE('',*,*,#322,.T.);
#216=ORIENTED_EDGE('',*,*,#323,.T.);
#217=ORIENTED_EDGE('',*,*,#324,.T.);
#218=ORIENTED_EDGE('',*,*,#325,.F.);
#219=ORIENTED_EDGE('',*,*,#326,.T.);
#220=ORIENTED_EDGE('',*,*,#327,.T.);
#221=ORIENTED_EDGE('',*,*,#328,.T.);
#222=ORIENTED_EDGE('',*,*,#329,.F.);
#223=ORIENTED_EDGE('',*,*,#330,.T.);
#224=ORIENTED_EDGE('',*,*,#325,.T.);
#225=ORIENTED_EDGE('',*,*,#331,.T.);
#226=ORIENTED_EDGE('',*,*,#320,.T.);
#227=ORIENTED_EDGE('',*,*,#332,.T.);
#228=ORIENTED_EDGE('',*,*,#316,.F.);
#229=ORIENTED_EDGE('',*,*,#333,.T.);
#230=ORIENTED_EDGE('',*,*,#329,.T.);
#231=ORIENTED_EDGE('',*,*,#334,.T.);
#232=ORIENTED_EDGE('',*,*,#312,.F.);
#233=ORIENTED_EDGE('',*,*,#335,.T.);
#234=ORIENTED_EDGE('',*,*,#334,.F.);
#235=ORIENTED_EDGE('',*,*,#336,.T.);
#236=ORIENTED_EDGE('',*,*,#335,.F.);
#237=ORIENTED_EDGE('',*,*,#337,.T.);
#238=ORIENTED_EDGE('',*,*,#336,.F.);
#239=ORIENTED_EDGE('',*,*,#338,.T.);
#240=ORIENTED_EDGE('',*,*,#337,.F.);
#241=ORIENTED_EDGE('',*,*,#339,.T.);
#242=ORIENTED_EDGE('',*,*,#338,.F.);
#243=ORIENTED_EDGE('',*,*,#340,.T.);
#244=ORIENTED_EDGE('',*,*,#339,.F.);
#245=ORIENTED_EDGE('',*,*,#341,.T.);
#246=ORIENTED_EDGE('',*,*,#340,.F.);
#247=ORIENTED_EDGE('',*,*,#342,.T.);
#248=ORIENTED_EDGE('',*,*,#341,.F.);
#249=ORIENTED_EDGE('',*,*,#343,.T.);
#250=ORIENTED_EDGE('',*,*,#342,.F.);
#251=ORIENTED_EDGE('',*,*,#344,.T.);
#252=ORIENTED_EDGE('',*,*,#343,.F.);
#253=ORIENTED_EDGE('',*,*,#345,.T.);
#254=ORIENTED_EDGE('',*,*,#344,.F.);
#255=ORIENTED_EDGE('',*,*,#321,.T.);
#256=ORIENTED_EDGE('',*,*,#345,.F.);
#257=ORIENTED_EDGE('',*,*,#328,.F.);
#258=ORIENTED_EDGE('',*,*,#346,.T.);
#259=ORIENTED_EDGE('',*,*,#317,.F.);
#260=ORIENTED_EDGE('',*,*,#332,.F.);
#261=ORIENTED_EDGE('',*,*,#327,.F.);
#262=ORIENTED_EDGE('',*,*,#347,.T.);
#263=ORIENTED_EDGE('',*,*,#318,.F.);
#264=ORIENTED_EDGE('',*,*,#346,.F.);
#265=ORIENTED_EDGE('',*,*,#319,.F.);
#266=ORIENTED_EDGE('',*,*,#347,.F.);
#267=ORIENTED_EDGE('',*,*,#326,.F.);
#268=ORIENTED_EDGE('',*,*,#330,.F.);
#269=ORIENTED_EDGE('',*,*,#324,.F.);
#270=ORIENTED_EDGE('',*,*,#348,.T.);
#271=ORIENTED_EDGE('',*,*,#313,.F.);
#272=ORIENTED_EDGE('',*,*,#331,.F.);
#273=ORIENTED_EDGE('',*,*,#314,.F.);
#274=ORIENTED_EDGE('',*,*,#348,.F.);
#275=ORIENTED_EDGE('',*,*,#323,.F.);
#276=ORIENTED_EDGE('',*,*,#349,.T.);
#277=ORIENTED_EDGE('',*,*,#315,.F.);
#278=ORIENTED_EDGE('',*,*,#349,.F.);
#279=ORIENTED_EDGE('',*,*,#322,.F.);
#280=ORIENTED_EDGE('',*,*,#333,.F.);
#281=VERTEX_POINT('',#553);
#282=VERTEX_POINT('',#555);
#283=VERTEX_POINT('',#556);
#284=VERTEX_POINT('',#558);
#285=VERTEX_POINT('',#560);
#286=VERTEX_POINT('',#562);
#287=VERTEX_POINT('',#564);
#288=VERTEX_POINT('',#566);
#289=VERTEX_POINT('',#568);
#290=VERTEX_POINT('',#572);
#291=VERTEX_POINT('',#574);
#292=VERTEX_POINT('',#575);
#293=VERTEX_POINT('',#577);
#294=VERTEX_POINT('',#579);
#295=VERTEX_POINT('',#581);
#296=VERTEX_POINT('',#583);
#297=VERTEX_POINT('',#585);
#298=VERTEX_POINT('',#587);
#299=VERTEX_POINT('',#597);
#300=VERTEX_POINT('',#600);
#301=VERTEX_POINT('',#603);
#302=VERTEX_POINT('',#606);
#303=VERTEX_POINT('',#609);
#304=VERTEX_POINT('',#612);
#305=VERTEX_POINT('',#615);
#306=VERTEX_POINT('',#618);
#307=VERTEX_POINT('',#621);
#308=VERTEX_POINT('',#624);
#309=VERTEX_POINT('',#627);
#310=VERTEX_POINT('',#630);
#311=VERTEX_POINT('',#643);
#312=EDGE_CURVE('',#281,#281,#350,.T.);
#313=EDGE_CURVE('',#282,#283,#96,.T.);
#314=EDGE_CURVE('',#283,#284,#97,.T.);
#315=EDGE_CURVE('',#284,#285,#98,.T.);
#316=EDGE_CURVE('',#285,#286,#351,.T.);
#317=EDGE_CURVE('',#286,#287,#99,.T.);
#318=EDGE_CURVE('',#287,#288,#100,.T.);
#319=EDGE_CURVE('',#288,#289,#101,.T.);
#320=EDGE_CURVE('',#282,#289,#352,.T.);
#321=EDGE_CURVE('',#290,#290,#353,.T.);
#322=EDGE_CURVE('',#291,#292,#102,.T.);
#323=EDGE_CURVE('',#292,#293,#103,.T.);
#324=EDGE_CURVE('',#293,#294,#104,.T.);
#325=EDGE_CURVE('',#295,#294,#354,.T.);
#326=EDGE_CURVE('',#295,#296,#105,.T.);
#327=EDGE_CURVE('',#296,#297,#106,.T.);
#328=EDGE_CURVE('',#297,#298,#107,.T.);
#329=EDGE_CURVE('',#291,#298,#355,.T.);
#330=EDGE_CURVE('',#289,#295,#108,.T.);
#331=EDGE_CURVE('',#294,#282,#109,.T.);
#332=EDGE_CURVE('',#298,#286,#110,.T.);
#333=EDGE_CURVE('',#285,#291,#111,.T.);
#334=EDGE_CURVE('',#299,#299,#356,.T.);
#335=EDGE_CURVE('',#300,#300,#357,.T.);
#336=EDGE_CURVE('',#301,#301,#358,.T.);
#337=EDGE_CURVE('',#302,#302,#359,.T.);
#338=EDGE_CURVE('',#303,#303,#360,.T.);
#339=EDGE_CURVE('',#304,#304,#361,.T.);
#340=EDGE_CURVE('',#305,#305,#362,.T.);
#341=EDGE_CURVE('',#306,#306,#363,.T.);
#342=EDGE_CURVE('',#307,#307,#364,.T.);
#343=EDGE_CURVE('',#308,#308,#365,.T.);
#344=EDGE_CURVE('',#309,#309,#366,.T.);
#345=EDGE_CURVE('',#310,#310,#367,.T.);
#346=EDGE_CURVE('',#297,#287,#112,.T.);
#347=EDGE_CURVE('',#296,#288,#113,.T.);
#348=EDGE_CURVE('',#293,#283,#114,.T.);
#349=EDGE_CURVE('',#292,#284,#115,.T.);
#350=CIRCLE('',#394,28.6);
#351=CIRCLE('',#395,19.05);
#352=CIRCLE('',#396,19.05);
#353=CIRCLE('',#398,28.6);
#354=CIRCLE('',#399,19.05);
#355=CIRCLE('',#400,19.05);
#356=CIRCLE('',#404,29.5822646028439);
#357=CIRCLE('',#406,31.5467938085316);
#358=CIRCLE('',#408,59.2928203230276);
#359=CIRCLE('',#410,60.2928203230276);
#360=CIRCLE('',#412,61.1);
#361=CIRCLE('',#414,61.6);
#362=CIRCLE('',#416,61.6);
#363=CIRCLE('',#418,61.1);
#364=CIRCLE('',#420,60.2928203230276);
#365=CIRCLE('',#422,59.2928203230276);
#366=CIRCLE('',#424,31.5467938085316);
#367=CIRCLE('',#426,29.5822646028439);
#368=PRESENTATION_LAYER_ASSIGNMENT('1','Layer 1',(#391,#392,#393));
#369=PRESENTATION_LAYER_ASSIGNMENT('2','Layer 2',(#36));
#370=PRESENTATION_LAYER_ASSIGNMENT('3','Layer 3',(#37));
#371=STYLED_ITEM('',(#376),#391);
#372=STYLED_ITEM('',(#377),#392);
#373=STYLED_ITEM('',(#378),#393);
#374=STYLED_ITEM('',(#379),#36);
#375=STYLED_ITEM('',(#380),#37);
#376=PRESENTATION_STYLE_ASSIGNMENT((#381));
#377=PRESENTATION_STYLE_ASSIGNMENT((#382));
#378=PRESENTATION_STYLE_ASSIGNMENT((#383));
#379=PRESENTATION_STYLE_ASSIGNMENT((#26));
#380=PRESENTATION_STYLE_ASSIGNMENT((#27));
#381=CURVE_STYLE('',#387,POSITIVE_LENGTH_MEASURE(0.18),#384);
#382=CURVE_STYLE('',#388,POSITIVE_LENGTH_MEASURE(0.18),#384);
#383=CURVE_STYLE('',#389,POSITIVE_LENGTH_MEASURE(0.18),#384);
#384=COLOUR_RGB('Strong Stone',0.576470588235294,0.54508278019379,0.392156862745098);
#385=COLOUR_RGB('Medium Gray',0.490196078431373,0.490196078431373,0.490196078431373);
#386=COLOUR_RGB('Light Gray',0.8,0.8,0.8);
#387=DRAUGHTING_PRE_DEFINED_CURVE_FONT('continuous');
#388=DRAUGHTING_PRE_DEFINED_CURVE_FONT('continuous');
#389=DRAUGHTING_PRE_DEFINED_CURVE_FONT('continuous');
#390=AXIS2_PLACEMENT_3D('',#548,#436,#437);
#391=AXIS2_PLACEMENT_3D('MCS',#549,#438,#439);
#392=AXIS2_PLACEMENT_3D('PCS',#550,#440,#441);
#393=AXIS2_PLACEMENT_3D('CIP',#551,#442,#443);
#394=AXIS2_PLACEMENT_3D('',#552,#444,#445);
#395=AXIS2_PLACEMENT_3D('',#561,#449,#450);
#396=AXIS2_PLACEMENT_3D('',#569,#454,#455);
#397=AXIS2_PLACEMENT_3D('',#570,#456,#457);
#398=AXIS2_PLACEMENT_3D('',#571,#458,#459);
#399=AXIS2_PLACEMENT_3D('',#580,#463,#464);
#400=AXIS2_PLACEMENT_3D('',#588,#468,#469);
#401=AXIS2_PLACEMENT_3D('',#589,#470,#471);
#402=AXIS2_PLACEMENT_3D('',#592,#474,#475);
#403=AXIS2_PLACEMENT_3D('',#595,#478,#479);
#404=AXIS2_PLACEMENT_3D('',#596,#480,#481);
#405=AXIS2_PLACEMENT_3D('',#598,#482,#483);
#406=AXIS2_PLACEMENT_3D('',#599,#484,#485);
#407=AXIS2_PLACEMENT_3D('',#601,#486,#487);
#408=AXIS2_PLACEMENT_3D('',#602,#488,#489);
#409=AXIS2_PLACEMENT_3D('',#604,#490,#491);
#410=AXIS2_PLACEMENT_3D('',#605,#492,#493);
#411=AXIS2_PLACEMENT_3D('',#607,#494,#495);
#412=AXIS2_PLACEMENT_3D('',#608,#496,#497);
#413=AXIS2_PLACEMENT_3D('',#610,#498,#499);
#414=AXIS2_PLACEMENT_3D('',#611,#500,#501);
#415=AXIS2_PLACEMENT_3D('',#613,#502,#503);
#416=AXIS2_PLACEMENT_3D('',#614,#504,#505);
#417=AXIS2_PLACEMENT_3D('',#616,#506,#507);
#418=AXIS2_PLACEMENT_3D('',#617,#508,#509);
#419=AXIS2_PLACEMENT_3D('',#619,#510,#511);
#420=AXIS2_PLACEMENT_3D('',#620,#512,#513);
#421=AXIS2_PLACEMENT_3D('',#622,#514,#515);
#422=AXIS2_PLACEMENT_3D('',#623,#516,#517);
#423=AXIS2_PLACEMENT_3D('',#625,#518,#519);
#424=AXIS2_PLACEMENT_3D('',#626,#520,#521);
#425=AXIS2_PLACEMENT_3D('',#628,#522,#523);
#426=AXIS2_PLACEMENT_3D('',#629,#524,#525);
#427=AXIS2_PLACEMENT_3D('',#631,#526,#527);
#428=AXIS2_PLACEMENT_3D('',#632,#528,#529);
#429=AXIS2_PLACEMENT_3D('',#634,#531,#532);
#430=AXIS2_PLACEMENT_3D('',#636,#534,#535);
#431=AXIS2_PLACEMENT_3D('',#637,#536,#537);
#432=AXIS2_PLACEMENT_3D('',#639,#539,#540);
#433=AXIS2_PLACEMENT_3D('',#641,#542,#543);
#434=AXIS2_PLACEMENT_3D('',#642,#544,#545);
#435=AXIS2_PLACEMENT_3D('',#644,#546,#547);
#436=DIRECTION('',(0.,0.,1.));
#437=DIRECTION('',(1.,0.,0.));
#438=DIRECTION('',(0.,0.,1.));
#439=DIRECTION('',(1.,0.,0.));
#440=DIRECTION('',(0.,0.,1.));
#441=DIRECTION('',(1.,0.,0.));
#442=DIRECTION('',(0.,0.,1.));
#443=DIRECTION('',(1.,0.,0.));
#444=DIRECTION('',(0.,0.,1.));
#445=DIRECTION('',(1.,0.,0.));
#446=DIRECTION('',(-0.951056516295154,-0.309016994374945,0.));
#447=DIRECTION('',(-0.309016994374945,0.951056516295154,0.));
#448=DIRECTION('',(0.951056516295154,0.309016994374945,0.));
#449=DIRECTION('',(0.,0.,-1.));
#450=DIRECTION('',(1.,0.,0.));
#451=DIRECTION('',(1.,-1.7952854257886E-16,0.));
#452=DIRECTION('',(0.,-1.,0.));
#453=DIRECTION('',(-1.,-1.7952854257886E-16,0.));
#454=DIRECTION('',(0.,0.,1.));
#455=DIRECTION('',(1.,0.,0.));
#456=DIRECTION('',(0.,0.,1.));
#457=DIRECTION('',(1.,0.,0.));
#458=DIRECTION('',(0.,0.,1.));
#459=DIRECTION('',(1.,0.,0.));
#460=DIRECTION('',(-0.951056516295154,-0.309016994374945,0.));
#461=DIRECTION('',(0.309016994374945,-0.951056516295154,0.));
#462=DIRECTION('',(0.951056516295154,0.309016994374945,0.));
#463=DIRECTION('',(0.,0.,-1.));
#464=DIRECTION('',(-1.,0.,0.));
#465=DIRECTION('',(1.,1.7952854257886E-16,0.));
#466=DIRECTION('',(0.,1.,0.));
#467=DIRECTION('',(-1.,1.7952854257886E-16,0.));
#468=DIRECTION('',(0.,0.,-1.));
#469=DIRECTION('',(-1.,0.,0.));
#470=DIRECTION('',(0.,0.,-1.));
#471=DIRECTION('',(-1.,0.,0.));
#472=DIRECTION('',(0.,0.,-1.));
#473=DIRECTION('',(0.,0.,1.));
#474=DIRECTION('',(0.,0.,1.));
#475=DIRECTION('',(1.,0.,0.));
#476=DIRECTION('',(0.,0.,1.));
#477=DIRECTION('',(0.,0.,-1.));
#478=DIRECTION('',(0.,0.,1.));
#479=DIRECTION('',(1.,0.,0.));
#480=DIRECTION('',(0.,0.,1.));
#481=DIRECTION('',(1.,0.,0.));
#482=DIRECTION('',(0.,0.,1.));
#483=DIRECTION('',(1.,0.,0.));
#484=DIRECTION('',(0.,0.,1.));
#485=DIRECTION('',(1.,0.,0.));
#486=DIRECTION('',(0.,0.,1.));
#487=DIRECTION('',(1.,0.,0.));
#488=DIRECTION('',(0.,0.,1.));
#489=DIRECTION('',(1.,0.,0.));
#490=DIRECTION('',(0.,0.,1.));
#491=DIRECTION('',(1.,0.,0.));
#492=DIRECTION('',(0.,0.,1.));
#493=DIRECTION('',(1.,0.,0.));
#494=DIRECTION('',(0.,0.,1.));
#495=DIRECTION('',(1.,0.,0.));
#496=DIRECTION('',(0.,0.,1.));
#497=DIRECTION('',(1.,0.,0.));
#498=DIRECTION('',(0.,0.,-1.));
#499=DIRECTION('',(-1.,0.,-5.49256045156204E-17));
#500=DIRECTION('',(0.,0.,1.));
#501=DIRECTION('',(1.,0.,0.));
#502=DIRECTION('',(0.,0.,1.));
#503=DIRECTION('',(1.,0.,0.));
#504=DIRECTION('',(0.,0.,1.));
#505=DIRECTION('',(1.,0.,0.));
#506=DIRECTION('',(0.,0.,1.));
#507=DIRECTION('',(1.,0.,0.));
#508=DIRECTION('',(0.,0.,1.));
#509=DIRECTION('',(1.,0.,0.));
#510=DIRECTION('',(0.,0.,1.));
#511=DIRECTION('',(1.,0.,0.));
#512=DIRECTION('',(0.,0.,1.));
#513=DIRECTION('',(1.,0.,0.));
#514=DIRECTION('',(0.,0.,1.));
#515=DIRECTION('',(1.,0.,6.77191471045377E-18));
#516=DIRECTION('',(0.,0.,1.));
#517=DIRECTION('',(1.,0.,0.));
#518=DIRECTION('',(0.,0.,1.));
#519=DIRECTION('',(1.,0.,0.));
#520=DIRECTION('',(0.,0.,1.));
#521=DIRECTION('',(1.,0.,0.));
#522=DIRECTION('',(0.,0.,-1.));
#523=DIRECTION('',(-1.,0.,0.));
#524=DIRECTION('',(0.,0.,1.));
#525=DIRECTION('',(1.,0.,0.));
#526=DIRECTION('',(0.,0.,1.));
#527=DIRECTION('',(1.,0.,0.));
#528=DIRECTION('',(0.,0.,1.));
#529=DIRECTION('',(1.,0.,0.));
#530=DIRECTION('',(0.,0.,1.));
#531=DIRECTION('',(-1.7952854257886E-16,-1.,0.));
#532=DIRECTION('',(1.,-1.795438797636E-16,0.));
#533=DIRECTION('',(0.,0.,1.));
#534=DIRECTION('',(-1.,0.,0.));
#535=DIRECTION('',(0.,0.,1.));
#536=DIRECTION('',(-1.7952854257886E-16,1.,0.));
#537=DIRECTION('',(-1.,-1.795438797636E-16,0.));
#538=DIRECTION('',(0.,0.,1.));
#539=DIRECTION('',(-0.309016994374945,0.951056516295154,0.));
#540=DIRECTION('',(-0.951056516295154,-0.309016994374945,0.));
#541=DIRECTION('',(0.,0.,1.));
#542=DIRECTION('',(0.951056516295154,0.309016994374945,0.));
#543=DIRECTION('',(-0.309016994374945,0.951056516295154,0.));
#544=DIRECTION('',(0.309016994374945,-0.951056516295154,0.));
#545=DIRECTION('',(0.951056516295154,0.309016994374945,0.));
#546=DIRECTION('',(0.,0.,-1.));
#547=DIRECTION('',(-1.,0.,0.));
#548=CARTESIAN_POINT('',(0.,0.,0.));
#549=CARTESIAN_POINT('',(0.,0.,0.));
#550=CARTESIAN_POINT('',(0.,0.,0.));
#551=CARTESIAN_POINT('',(0.,0.,-14.00014551979));
#552=CARTESIAN_POINT('',(0.,0.,0.));
#553=CARTESIAN_POINT('',(28.6,0.,0.));
#554=CARTESIAN_POINT('',(-15.1903238141926,-9.94059558676104,0.));
#555=CARTESIAN_POINT('',(-16.0720093972,-10.2270725985648,0.));
#556=CARTESIAN_POINT('',(-19.785192245972,-11.433558841845,0.));
#557=CARTESIAN_POINT('',(-19.785192245972,-11.4335588418449,0.));
#558=CARTESIAN_POINT('',(-22.7270340324215,-2.37950080671511,0.));
#559=CARTESIAN_POINT('',(-22.7270340324214,-2.37950080671509,0.));
#560=CARTESIAN_POINT('',(-19.0138511836495,-1.1730145634349,0.));
#561=CARTESIAN_POINT('',(0.,0.,0.));
#562=CARTESIAN_POINT('',(18.4457285028269,4.76,0.));
#563=CARTESIAN_POINT('',(17.5186694186391,4.76,0.));
#564=CARTESIAN_POINT('',(22.35,4.76,0.));
#565=CARTESIAN_POINT('',(22.35,4.76,0.));
#566=CARTESIAN_POINT('',(22.35,-4.76,0.));
#567=CARTESIAN_POINT('',(22.35,-4.76,0.));
#568=CARTESIAN_POINT('',(18.4457285028269,-4.76,0.));
#569=CARTESIAN_POINT('',(0.,0.,0.));
#570=CARTESIAN_POINT('',(0.,19.05,0.));
#571=CARTESIAN_POINT('',(0.,0.,-15.875));
#572=CARTESIAN_POINT('',(28.6,0.,-15.875));
#573=CARTESIAN_POINT('',(6.93440821455757,7.25808599800314,-15.875));
#574=CARTESIAN_POINT('',(-19.0138511836495,-1.1730145634349,-15.875));
#575=CARTESIAN_POINT('',(-22.7270340324215,-2.37950080671511,-15.875));
#576=CARTESIAN_POINT('',(-29.661442246979,18.9624131952818,-15.875));
#577=CARTESIAN_POINT('',(-19.785192245972,-11.433558841845,-15.875));
#578=CARTESIAN_POINT('',(9.87625000100704,-1.79597203712673,-15.875));
#579=CARTESIAN_POINT('',(-16.0720093972,-10.2270725985647,-15.875));
#580=CARTESIAN_POINT('',(0.,0.,-15.875));
#581=CARTESIAN_POINT('',(18.4457285028269,-4.76,-15.875));
#582=CARTESIAN_POINT('',(5.98907218043078E-15,-4.76,-15.875));
#583=CARTESIAN_POINT('',(22.35,-4.76,-15.875));
#584=CARTESIAN_POINT('',(22.35,28.6,-15.875));
#585=CARTESIAN_POINT('',(22.35,4.76,-15.875));
#586=CARTESIAN_POINT('',(-4.27996045508003E-15,4.76,-15.875));
#587=CARTESIAN_POINT('',(18.4457285028269,4.76,-15.875));
#588=CARTESIAN_POINT('',(0.,0.,-15.875));
#589=CARTESIAN_POINT('',(0.,28.6,-15.875));
#590=CARTESIAN_POINT('',(18.4457285028269,-4.76,-7.9375));
#591=CARTESIAN_POINT('',(-16.0720093972,-10.2270725985647,-7.9375));
#592=CARTESIAN_POINT('',(0.,0.,-7.9375));
#593=CARTESIAN_POINT('',(18.4457285028269,4.76,-7.9375));
#594=CARTESIAN_POINT('',(-19.0138511836495,-1.17301456343488,-7.9375));
#595=CARTESIAN_POINT('',(0.,0.,-7.9375));
#596=CARTESIAN_POINT('',(0.,0.,-0.812499999999997));
#597=CARTESIAN_POINT('',(29.5822646028439,0.,-0.812499999999997));
#598=CARTESIAN_POINT('',(0.,0.,-0.999999999999997));
#599=CARTESIAN_POINT('',(0.,0.,-2.4375));
#600=CARTESIAN_POINT('',(31.5467938085316,0.,-2.4375));
#601=CARTESIAN_POINT('',(0.,0.,-0.437499999999998));
#602=CARTESIAN_POINT('',(0.,0.,-2.43749999999999));
#603=CARTESIAN_POINT('',(59.2928203230276,0.,-2.43749999999999));
#604=CARTESIAN_POINT('',(0.,31.5467938085316,-2.43749999999999));
#605=CARTESIAN_POINT('',(0.,0.,-2.70544919243111));
#606=CARTESIAN_POINT('',(60.2928203230276,0.,-2.70544919243111));
#607=CARTESIAN_POINT('',(0.,0.,-4.43749999999999));
#608=CARTESIAN_POINT('',(0.,0.,-3.17147459621555));
#609=CARTESIAN_POINT('',(61.1,0.,-3.17147459621555));
#610=CARTESIAN_POINT('',(0.,0.,-2.70544919243111));
#611=CARTESIAN_POINT('',(0.,0.,-4.03749999999999));
#612=CARTESIAN_POINT('',(61.6,0.,-4.03749999999999));
#613=CARTESIAN_POINT('',(0.,0.,-4.03749999999999));
#614=CARTESIAN_POINT('',(0.,0.,-11.8375));
#615=CARTESIAN_POINT('',(61.6,0.,-11.8375));
#616=CARTESIAN_POINT('',(0.,0.,-7.9375));
#617=CARTESIAN_POINT('',(0.,0.,-12.7035254037844));
#618=CARTESIAN_POINT('',(61.1,0.,-12.7035254037844));
#619=CARTESIAN_POINT('',(0.,0.,-11.8375));
#620=CARTESIAN_POINT('',(0.,0.,-13.1695508075689));
#621=CARTESIAN_POINT('',(60.2928203230276,0.,-13.1695508075689));
#622=CARTESIAN_POINT('',(0.,0.,-12.7035254037844));
#623=CARTESIAN_POINT('',(0.,0.,-13.4375));
#624=CARTESIAN_POINT('',(59.2928203230276,0.,-13.4375));
#625=CARTESIAN_POINT('',(0.,0.,-11.4375));
#626=CARTESIAN_POINT('',(0.,0.,-13.4375));
#627=CARTESIAN_POINT('',(31.5467938085316,0.,-13.4375));
#628=CARTESIAN_POINT('',(0.,59.2928203230276,-13.4375));
#629=CARTESIAN_POINT('',(0.,0.,-15.0625));
#630=CARTESIAN_POINT('',(29.5822646028439,0.,-15.0625));
#631=CARTESIAN_POINT('',(0.,0.,-15.4375));
#632=CARTESIAN_POINT('',(0.,0.,-14.875));
#633=CARTESIAN_POINT('',(22.35,4.76,-41.5));
#634=CARTESIAN_POINT('',(17.5186694186391,4.76,-41.5));
#635=CARTESIAN_POINT('',(22.35,-4.76,-41.5));
#636=CARTESIAN_POINT('',(22.35,4.76,-41.5));
#637=CARTESIAN_POINT('',(22.35,-4.76,-41.5));
#638=CARTESIAN_POINT('',(-19.785192245972,-11.433558841845,-41.5));
#639=CARTESIAN_POINT('',(-15.1903238141926,-9.94059558676104,-41.5));
#640=CARTESIAN_POINT('',(-22.7270340324215,-2.37950080671511,-41.5));
#641=CARTESIAN_POINT('',(-19.785192245972,-11.4335588418449,-41.5));
#642=CARTESIAN_POINT('',(-22.7270340324214,-2.37950080671509,-41.5));
#643=CARTESIAN_POINT('',(-64.5,0.,-7.97));
#644=CARTESIAN_POINT('',(0.,0.,-7.97));
#645=MECHANICAL_DESIGN_GEOMETRIC_PRESENTATION_REPRESENTATION('',(#371,#372,
#373,#374,#375),#646);
#646=(
GEOMETRIC_REPRESENTATION_CONTEXT(3)
GLOBAL_UNCERTAINTY_ASSIGNED_CONTEXT((#647))
GLOBAL_UNIT_ASSIGNED_CONTEXT((#653,#649,#648))
REPRESENTATION_CONTEXT('335.18-05','TOP_LEVEL_ASSEMBLY_PART')
);
#647=UNCERTAINTY_MEASURE_WITH_UNIT(LENGTH_MEASURE(2.E-5),#653,
'DISTANCE_ACCURACY_VALUE','Maximum Tolerance applied to model');
#648=(
NAMED_UNIT(*)
SI_UNIT($,.STERADIAN.)
SOLID_ANGLE_UNIT()
);
#649=(
CONVERSION_BASED_UNIT('DEGREE',#651)
NAMED_UNIT(#650)
PLANE_ANGLE_UNIT()
);
#650=DIMENSIONAL_EXPONENTS(0.,0.,0.,0.,0.,0.,0.);
#651=PLANE_ANGLE_MEASURE_WITH_UNIT(PLANE_ANGLE_MEASURE(0.0174532925),#652);
#652=(
NAMED_UNIT(*)
PLANE_ANGLE_UNIT()
SI_UNIT($,.RADIAN.)
);
#653=(
LENGTH_UNIT()
NAMED_UNIT(*)
SI_UNIT(.MILLI.,.METRE.)
);
ENDSEC;
END-ISO-10303-21;
