ISO-10303-21;
HEADER;
/* Generated by software containing ST-Developer
 * from STEP Tools, Inc. (www.steptools.com) 
 */
/* OPTION: using custom schema-name function */

FILE_DESCRIPTION(
/* description */ (''),
/* implementation_level */ '2;1');

FILE_NAME(
/* name */ '335.10-315-04.40-24.stp',
/* time_stamp */ '2017-09-14T10:21:07+06:00',
/* author */ (''),
/* organization */ (''),
/* preprocessor_version */ 'ST-DEVELOPER v16',
/* originating_system */ 'SIEMENS PLM Software NX 11.0',
/* authorisation */ '');

FILE_SCHEMA (('AUTOMOTIVE_DESIGN { 1 0 10303 214 3 1 1 1 }'));
ENDSEC;

DATA;
#10=CONSTRUCTIVE_GEOMETRY_REPRESENTATION_RELATIONSHIP(
'supplemental geometry','',#24,#11);
#11=CONSTRUCTIVE_GEOMETRY_REPRESENTATION('supplemental geometry',(#396,
#397,#398),#656);
#12=SHAPE_REPRESENTATION_RELATIONSHIP('None',
'relationship between 335.10-315-04.40-24-None and 335.10-315-04.40-24
-None',#24,#13);
#13=ADVANCED_BREP_SHAPE_REPRESENTATION('335.10-315-04.40-24-None',(#39,
#40),#656);
#14=SHAPE_DEFINITION_REPRESENTATION(#15,#24);
#15=PRODUCT_DEFINITION_SHAPE('','',#16);
#16=PRODUCT_DEFINITION(' ','',#18,#17);
#17=PRODUCT_DEFINITION_CONTEXT('part definition',#23,'design');
#18=PRODUCT_DEFINITION_FORMATION_WITH_SPECIFIED_SOURCE(' ',' ',#20,
 .NOT_KNOWN.);
#19=PRODUCT_RELATED_PRODUCT_CATEGORY('part','',(#20));
#20=PRODUCT('335.10-315-04.40-24','335.10-315-04.40-24',' ',(#21));
#21=PRODUCT_CONTEXT(' ',#23,'mechanical');
#22=APPLICATION_PROTOCOL_DEFINITION('international standard',
'automotive_design',2010,#23);
#23=APPLICATION_CONTEXT(
'core data for automotive mechanical design processes');
#24=SHAPE_REPRESENTATION('335.10-315-04.40-24-None',(#395),#656);
#25=CONICAL_SURFACE('',#436,154.568061,85.9999984917157);
#26=CONICAL_SURFACE('',#440,157.500049969367,85.9999984917152);
#27=TOROIDAL_SURFACE('',#434,154.55582413075,0.169621617495004);
#28=TOROIDAL_SURFACE('',#442,154.55578436023,0.169581360229724);
#29=SURFACE_STYLE_USAGE(.BOTH.,#31);
#30=SURFACE_STYLE_USAGE(.BOTH.,#32);
#31=SURFACE_SIDE_STYLE('',(#33));
#32=SURFACE_SIDE_STYLE('',(#34));
#33=SURFACE_STYLE_FILL_AREA(#35);
#34=SURFACE_STYLE_FILL_AREA(#36);
#35=FILL_AREA_STYLE('',(#37));
#36=FILL_AREA_STYLE('',(#38));
#37=FILL_AREA_STYLE_COLOUR('',#390);
#38=FILL_AREA_STYLE_COLOUR('',#391);
#39=MANIFOLD_SOLID_BREP('NOCUT',#41);
#40=MANIFOLD_SOLID_BREP('CUT',#42);
#41=CLOSED_SHELL('',(#89,#90,#91,#92,#93,#94,#95,#96,#97,#98,#99,#100,#101,
#102,#103));
#42=CLOSED_SHELL('',(#104,#105,#106,#107,#108,#109));
#43=FACE_OUTER_BOUND('',#169,.T.);
#44=FACE_OUTER_BOUND('',#170,.T.);
#45=FACE_OUTER_BOUND('',#171,.T.);
#46=FACE_OUTER_BOUND('',#172,.T.);
#47=FACE_OUTER_BOUND('',#173,.T.);
#48=FACE_OUTER_BOUND('',#174,.T.);
#49=FACE_OUTER_BOUND('',#175,.T.);
#50=FACE_OUTER_BOUND('',#176,.T.);
#51=PLANE('',#410);
#52=PLANE('',#419);
#53=PLANE('',#420);
#54=PLANE('',#421);
#55=PLANE('',#423);
#56=PLANE('',#424);
#57=LINE('',#578,#73);
#58=LINE('',#582,#74);
#59=LINE('',#586,#75);
#60=LINE('',#590,#76);
#61=LINE('',#600,#77);
#62=LINE('',#605,#78);
#63=LINE('',#609,#79);
#64=LINE('',#613,#80);
#65=LINE('',#617,#81);
#66=LINE('',#618,#82);
#67=LINE('',#620,#83);
#68=LINE('',#621,#84);
#69=LINE('',#624,#85);
#70=LINE('',#625,#86);
#71=LINE('',#627,#87);
#72=LINE('',#628,#88);
#73=VECTOR('',#468,1.);
#74=VECTOR('',#471,1.);
#75=VECTOR('',#474,1.);
#76=VECTOR('',#477,1.);
#77=VECTOR('',#488,1.);
#78=VECTOR('',#491,1.);
#79=VECTOR('',#494,1.);
#80=VECTOR('',#497,1.);
#81=VECTOR('',#502,1.);
#82=VECTOR('',#503,1.);
#83=VECTOR('',#506,1.);
#84=VECTOR('',#507,1.);
#85=VECTOR('',#512,1.);
#86=VECTOR('',#513,1.);
#87=VECTOR('',#516,1.);
#88=VECTOR('',#517,1.);
#89=ADVANCED_FACE('',(#121,#122),#110,.T.);
#90=ADVANCED_FACE('',(#123,#124,#125,#126,#127,#128),#51,.T.);
#91=ADVANCED_FACE('',(#129,#130,#131,#132,#133,#134),#52,.F.);
#92=ADVANCED_FACE('',(#43),#53,.T.);
#93=ADVANCED_FACE('',(#44),#54,.F.);
#94=ADVANCED_FACE('',(#45),#111,.F.);
#95=ADVANCED_FACE('',(#46),#55,.T.);
#96=ADVANCED_FACE('',(#47),#56,.T.);
#97=ADVANCED_FACE('',(#48),#112,.F.);
#98=ADVANCED_FACE('',(#49),#113,.F.);
#99=ADVANCED_FACE('',(#50),#114,.F.);
#100=ADVANCED_FACE('',(#135,#136),#115,.F.);
#101=ADVANCED_FACE('',(#137,#138),#116,.F.);
#102=ADVANCED_FACE('',(#139,#140),#117,.F.);
#103=ADVANCED_FACE('',(#141,#142),#118,.F.);
#104=ADVANCED_FACE('',(#143,#144),#27,.T.);
#105=ADVANCED_FACE('',(#145,#146),#25,.T.);
#106=ADVANCED_FACE('',(#147,#148),#119,.T.);
#107=ADVANCED_FACE('',(#149,#150),#26,.T.);
#108=ADVANCED_FACE('',(#151,#152),#28,.T.);
#109=ADVANCED_FACE('',(#153,#154),#120,.F.);
#110=CYLINDRICAL_SURFACE('',#401,156.9);
#111=CYLINDRICAL_SURFACE('',#422,5.);
#112=CYLINDRICAL_SURFACE('',#425,4.99999999999998);
#113=CYLINDRICAL_SURFACE('',#426,20.004);
#114=CYLINDRICAL_SURFACE('',#427,20.004);
#115=CYLINDRICAL_SURFACE('',#428,5.5);
#116=CYLINDRICAL_SURFACE('',#429,5.5);
#117=CYLINDRICAL_SURFACE('',#430,5.5);
#118=CYLINDRICAL_SURFACE('',#431,5.5);
#119=CYLINDRICAL_SURFACE('',#438,157.493776);
#120=CYLINDRICAL_SURFACE('',#443,154.386203);
#121=FACE_BOUND('',#155,.T.);
#122=FACE_BOUND('',#156,.T.);
#123=FACE_BOUND('',#157,.T.);
#124=FACE_BOUND('',#158,.T.);
#125=FACE_BOUND('',#159,.T.);
#126=FACE_BOUND('',#160,.T.);
#127=FACE_BOUND('',#161,.T.);
#128=FACE_BOUND('',#162,.T.);
#129=FACE_BOUND('',#163,.T.);
#130=FACE_BOUND('',#164,.T.);
#131=FACE_BOUND('',#165,.T.);
#132=FACE_BOUND('',#166,.T.);
#133=FACE_BOUND('',#167,.T.);
#134=FACE_BOUND('',#168,.T.);
#135=FACE_BOUND('',#177,.T.);
#136=FACE_BOUND('',#178,.T.);
#137=FACE_BOUND('',#179,.T.);
#138=FACE_BOUND('',#180,.T.);
#139=FACE_BOUND('',#181,.T.);
#140=FACE_BOUND('',#182,.T.);
#141=FACE_BOUND('',#183,.T.);
#142=FACE_BOUND('',#184,.T.);
#143=FACE_BOUND('',#185,.T.);
#144=FACE_BOUND('',#186,.T.);
#145=FACE_BOUND('',#187,.T.);
#146=FACE_BOUND('',#188,.T.);
#147=FACE_BOUND('',#189,.T.);
#148=FACE_BOUND('',#190,.T.);
#149=FACE_BOUND('',#191,.T.);
#150=FACE_BOUND('',#192,.T.);
#151=FACE_BOUND('',#193,.T.);
#152=FACE_BOUND('',#194,.T.);
#153=FACE_BOUND('',#195,.T.);
#154=FACE_BOUND('',#196,.T.);
#155=EDGE_LOOP('',(#197));
#156=EDGE_LOOP('',(#198));
#157=EDGE_LOOP('',(#199));
#158=EDGE_LOOP('',(#200));
#159=EDGE_LOOP('',(#201));
#160=EDGE_LOOP('',(#202));
#161=EDGE_LOOP('',(#203));
#162=EDGE_LOOP('',(#204,#205,#206,#207,#208,#209,#210,#211));
#163=EDGE_LOOP('',(#212));
#164=EDGE_LOOP('',(#213));
#165=EDGE_LOOP('',(#214));
#166=EDGE_LOOP('',(#215));
#167=EDGE_LOOP('',(#216));
#168=EDGE_LOOP('',(#217,#218,#219,#220,#221,#222,#223,#224));
#169=EDGE_LOOP('',(#225,#226,#227,#228));
#170=EDGE_LOOP('',(#229,#230,#231,#232));
#171=EDGE_LOOP('',(#233,#234,#235,#236));
#172=EDGE_LOOP('',(#237,#238,#239,#240));
#173=EDGE_LOOP('',(#241,#242,#243,#244));
#174=EDGE_LOOP('',(#245,#246,#247,#248));
#175=EDGE_LOOP('',(#249,#250,#251,#252));
#176=EDGE_LOOP('',(#253,#254,#255,#256));
#177=EDGE_LOOP('',(#257));
#178=EDGE_LOOP('',(#258));
#179=EDGE_LOOP('',(#259));
#180=EDGE_LOOP('',(#260));
#181=EDGE_LOOP('',(#261));
#182=EDGE_LOOP('',(#262));
#183=EDGE_LOOP('',(#263));
#184=EDGE_LOOP('',(#264));
#185=EDGE_LOOP('',(#265));
#186=EDGE_LOOP('',(#266));
#187=EDGE_LOOP('',(#267));
#188=EDGE_LOOP('',(#268));
#189=EDGE_LOOP('',(#269));
#190=EDGE_LOOP('',(#270));
#191=EDGE_LOOP('',(#271));
#192=EDGE_LOOP('',(#272));
#193=EDGE_LOOP('',(#273));
#194=EDGE_LOOP('',(#274));
#195=EDGE_LOOP('',(#275));
#196=EDGE_LOOP('',(#276));
#197=ORIENTED_EDGE('',*,*,#309,.F.);
#198=ORIENTED_EDGE('',*,*,#310,.T.);
#199=ORIENTED_EDGE('',*,*,#309,.T.);
#200=ORIENTED_EDGE('',*,*,#311,.F.);
#201=ORIENTED_EDGE('',*,*,#312,.F.);
#202=ORIENTED_EDGE('',*,*,#313,.F.);
#203=ORIENTED_EDGE('',*,*,#314,.F.);
#204=ORIENTED_EDGE('',*,*,#315,.F.);
#205=ORIENTED_EDGE('',*,*,#316,.T.);
#206=ORIENTED_EDGE('',*,*,#317,.F.);
#207=ORIENTED_EDGE('',*,*,#318,.T.);
#208=ORIENTED_EDGE('',*,*,#319,.F.);
#209=ORIENTED_EDGE('',*,*,#320,.F.);
#210=ORIENTED_EDGE('',*,*,#321,.F.);
#211=ORIENTED_EDGE('',*,*,#322,.T.);
#212=ORIENTED_EDGE('',*,*,#310,.F.);
#213=ORIENTED_EDGE('',*,*,#323,.T.);
#214=ORIENTED_EDGE('',*,*,#324,.T.);
#215=ORIENTED_EDGE('',*,*,#325,.T.);
#216=ORIENTED_EDGE('',*,*,#326,.T.);
#217=ORIENTED_EDGE('',*,*,#327,.F.);
#218=ORIENTED_EDGE('',*,*,#328,.T.);
#219=ORIENTED_EDGE('',*,*,#329,.F.);
#220=ORIENTED_EDGE('',*,*,#330,.T.);
#221=ORIENTED_EDGE('',*,*,#331,.T.);
#222=ORIENTED_EDGE('',*,*,#332,.T.);
#223=ORIENTED_EDGE('',*,*,#333,.F.);
#224=ORIENTED_EDGE('',*,*,#334,.T.);
#225=ORIENTED_EDGE('',*,*,#335,.F.);
#226=ORIENTED_EDGE('',*,*,#333,.T.);
#227=ORIENTED_EDGE('',*,*,#336,.T.);
#228=ORIENTED_EDGE('',*,*,#318,.F.);
#229=ORIENTED_EDGE('',*,*,#320,.T.);
#230=ORIENTED_EDGE('',*,*,#337,.F.);
#231=ORIENTED_EDGE('',*,*,#331,.F.);
#232=ORIENTED_EDGE('',*,*,#338,.T.);
#233=ORIENTED_EDGE('',*,*,#319,.T.);
#234=ORIENTED_EDGE('',*,*,#336,.F.);
#235=ORIENTED_EDGE('',*,*,#332,.F.);
#236=ORIENTED_EDGE('',*,*,#337,.T.);
#237=ORIENTED_EDGE('',*,*,#339,.F.);
#238=ORIENTED_EDGE('',*,*,#329,.T.);
#239=ORIENTED_EDGE('',*,*,#340,.T.);
#240=ORIENTED_EDGE('',*,*,#322,.F.);
#241=ORIENTED_EDGE('',*,*,#341,.F.);
#242=ORIENTED_EDGE('',*,*,#327,.T.);
#243=ORIENTED_EDGE('',*,*,#342,.T.);
#244=ORIENTED_EDGE('',*,*,#316,.F.);
#245=ORIENTED_EDGE('',*,*,#315,.T.);
#246=ORIENTED_EDGE('',*,*,#340,.F.);
#247=ORIENTED_EDGE('',*,*,#328,.F.);
#248=ORIENTED_EDGE('',*,*,#341,.T.);
#249=ORIENTED_EDGE('',*,*,#321,.T.);
#250=ORIENTED_EDGE('',*,*,#338,.F.);
#251=ORIENTED_EDGE('',*,*,#330,.F.);
#252=ORIENTED_EDGE('',*,*,#339,.T.);
#253=ORIENTED_EDGE('',*,*,#317,.T.);
#254=ORIENTED_EDGE('',*,*,#342,.F.);
#255=ORIENTED_EDGE('',*,*,#334,.F.);
#256=ORIENTED_EDGE('',*,*,#335,.T.);
#257=ORIENTED_EDGE('',*,*,#314,.T.);
#258=ORIENTED_EDGE('',*,*,#326,.F.);
#259=ORIENTED_EDGE('',*,*,#313,.T.);
#260=ORIENTED_EDGE('',*,*,#325,.F.);
#261=ORIENTED_EDGE('',*,*,#312,.T.);
#262=ORIENTED_EDGE('',*,*,#324,.F.);
#263=ORIENTED_EDGE('',*,*,#311,.T.);
#264=ORIENTED_EDGE('',*,*,#323,.F.);
#265=ORIENTED_EDGE('',*,*,#343,.T.);
#266=ORIENTED_EDGE('',*,*,#344,.F.);
#267=ORIENTED_EDGE('',*,*,#345,.T.);
#268=ORIENTED_EDGE('',*,*,#343,.F.);
#269=ORIENTED_EDGE('',*,*,#346,.T.);
#270=ORIENTED_EDGE('',*,*,#345,.F.);
#271=ORIENTED_EDGE('',*,*,#347,.T.);
#272=ORIENTED_EDGE('',*,*,#346,.F.);
#273=ORIENTED_EDGE('',*,*,#348,.T.);
#274=ORIENTED_EDGE('',*,*,#347,.F.);
#275=ORIENTED_EDGE('',*,*,#344,.T.);
#276=ORIENTED_EDGE('',*,*,#348,.F.);
#277=VERTEX_POINT('',#563);
#278=VERTEX_POINT('',#565);
#279=VERTEX_POINT('',#568);
#280=VERTEX_POINT('',#570);
#281=VERTEX_POINT('',#572);
#282=VERTEX_POINT('',#574);
#283=VERTEX_POINT('',#576);
#284=VERTEX_POINT('',#577);
#285=VERTEX_POINT('',#579);
#286=VERTEX_POINT('',#581);
#287=VERTEX_POINT('',#583);
#288=VERTEX_POINT('',#585);
#289=VERTEX_POINT('',#587);
#290=VERTEX_POINT('',#589);
#291=VERTEX_POINT('',#593);
#292=VERTEX_POINT('',#595);
#293=VERTEX_POINT('',#597);
#294=VERTEX_POINT('',#599);
#295=VERTEX_POINT('',#601);
#296=VERTEX_POINT('',#602);
#297=VERTEX_POINT('',#604);
#298=VERTEX_POINT('',#606);
#299=VERTEX_POINT('',#608);
#300=VERTEX_POINT('',#610);
#301=VERTEX_POINT('',#612);
#302=VERTEX_POINT('',#614);
#303=VERTEX_POINT('',#638);
#304=VERTEX_POINT('',#640);
#305=VERTEX_POINT('',#643);
#306=VERTEX_POINT('',#646);
#307=VERTEX_POINT('',#649);
#308=VERTEX_POINT('',#652);
#309=EDGE_CURVE('',#277,#277,#349,.T.);
#310=EDGE_CURVE('',#278,#278,#350,.T.);
#311=EDGE_CURVE('',#279,#279,#351,.T.);
#312=EDGE_CURVE('',#280,#280,#352,.T.);
#313=EDGE_CURVE('',#281,#281,#353,.T.);
#314=EDGE_CURVE('',#282,#282,#354,.T.);
#315=EDGE_CURVE('',#283,#284,#355,.T.);
#316=EDGE_CURVE('',#283,#285,#57,.T.);
#317=EDGE_CURVE('',#286,#285,#356,.T.);
#318=EDGE_CURVE('',#286,#287,#58,.T.);
#319=EDGE_CURVE('',#288,#287,#357,.T.);
#320=EDGE_CURVE('',#289,#288,#59,.T.);
#321=EDGE_CURVE('',#290,#289,#358,.T.);
#322=EDGE_CURVE('',#290,#284,#60,.T.);
#323=EDGE_CURVE('',#291,#291,#359,.T.);
#324=EDGE_CURVE('',#292,#292,#360,.T.);
#325=EDGE_CURVE('',#293,#293,#361,.T.);
#326=EDGE_CURVE('',#294,#294,#362,.T.);
#327=EDGE_CURVE('',#295,#296,#61,.T.);
#328=EDGE_CURVE('',#295,#297,#363,.T.);
#329=EDGE_CURVE('',#298,#297,#62,.T.);
#330=EDGE_CURVE('',#298,#299,#364,.T.);
#331=EDGE_CURVE('',#299,#300,#63,.T.);
#332=EDGE_CURVE('',#300,#301,#365,.T.);
#333=EDGE_CURVE('',#302,#301,#64,.T.);
#334=EDGE_CURVE('',#302,#296,#366,.T.);
#335=EDGE_CURVE('',#302,#286,#65,.T.);
#336=EDGE_CURVE('',#301,#287,#66,.T.);
#337=EDGE_CURVE('',#300,#288,#67,.T.);
#338=EDGE_CURVE('',#299,#289,#68,.T.);
#339=EDGE_CURVE('',#298,#290,#69,.T.);
#340=EDGE_CURVE('',#297,#284,#70,.T.);
#341=EDGE_CURVE('',#295,#283,#71,.T.);
#342=EDGE_CURVE('',#296,#285,#72,.T.);
#343=EDGE_CURVE('',#303,#303,#367,.T.);
#344=EDGE_CURVE('',#304,#304,#368,.T.);
#345=EDGE_CURVE('',#305,#305,#369,.T.);
#346=EDGE_CURVE('',#306,#306,#370,.T.);
#347=EDGE_CURVE('',#307,#307,#371,.T.);
#348=EDGE_CURVE('',#308,#308,#372,.T.);
#349=CIRCLE('',#399,156.9);
#350=CIRCLE('',#400,156.9);
#351=CIRCLE('',#402,5.5);
#352=CIRCLE('',#403,5.5);
#353=CIRCLE('',#404,5.5);
#354=CIRCLE('',#405,5.5);
#355=CIRCLE('',#406,4.99999999999998);
#356=CIRCLE('',#407,20.004);
#357=CIRCLE('',#408,5.);
#358=CIRCLE('',#409,20.004);
#359=CIRCLE('',#411,5.5);
#360=CIRCLE('',#412,5.5);
#361=CIRCLE('',#413,5.5);
#362=CIRCLE('',#414,5.5);
#363=CIRCLE('',#415,4.99999999999998);
#364=CIRCLE('',#416,20.004);
#365=CIRCLE('',#417,5.);
#366=CIRCLE('',#418,20.004);
#367=CIRCLE('',#432,154.568061);
#368=CIRCLE('',#433,154.386203);
#369=CIRCLE('',#435,157.493776);
#370=CIRCLE('',#437,157.493776);
#371=CIRCLE('',#439,154.567613762385);
#372=CIRCLE('',#441,154.386203);
#373=PRESENTATION_LAYER_ASSIGNMENT('1','Layer 1',(#396,#397,#398));
#374=PRESENTATION_LAYER_ASSIGNMENT('2','Layer 2',(#39));
#375=PRESENTATION_LAYER_ASSIGNMENT('3','Layer 3',(#40));
#376=STYLED_ITEM('',(#381),#396);
#377=STYLED_ITEM('',(#382),#397);
#378=STYLED_ITEM('',(#383),#398);
#379=STYLED_ITEM('',(#384),#39);
#380=STYLED_ITEM('',(#385),#40);
#381=PRESENTATION_STYLE_ASSIGNMENT((#386));
#382=PRESENTATION_STYLE_ASSIGNMENT((#387));
#383=PRESENTATION_STYLE_ASSIGNMENT((#388));
#384=PRESENTATION_STYLE_ASSIGNMENT((#29));
#385=PRESENTATION_STYLE_ASSIGNMENT((#30));
#386=CURVE_STYLE('',#392,POSITIVE_LENGTH_MEASURE(0.18),#389);
#387=CURVE_STYLE('',#393,POSITIVE_LENGTH_MEASURE(0.18),#389);
#388=CURVE_STYLE('',#394,POSITIVE_LENGTH_MEASURE(0.18),#389);
#389=COLOUR_RGB('Medium Maroon',0.6,0.4,0.4);
#390=COLOUR_RGB('Medium Gray',0.490196078431373,0.490196078431373,0.490196078431373);
#391=COLOUR_RGB('Light Gray',0.8,0.8,0.8);
#392=DRAUGHTING_PRE_DEFINED_CURVE_FONT('continuous');
#393=DRAUGHTING_PRE_DEFINED_CURVE_FONT('continuous');
#394=DRAUGHTING_PRE_DEFINED_CURVE_FONT('continuous');
#395=AXIS2_PLACEMENT_3D('',#558,#444,#445);
#396=AXIS2_PLACEMENT_3D('PCS',#559,#446,#447);
#397=AXIS2_PLACEMENT_3D('MCS',#560,#448,#449);
#398=AXIS2_PLACEMENT_3D('CIP',#561,#450,#451);
#399=AXIS2_PLACEMENT_3D('',#562,#452,#453);
#400=AXIS2_PLACEMENT_3D('',#564,#454,#455);
#401=AXIS2_PLACEMENT_3D('',#566,#456,#457);
#402=AXIS2_PLACEMENT_3D('',#567,#458,#459);
#403=AXIS2_PLACEMENT_3D('',#569,#460,#461);
#404=AXIS2_PLACEMENT_3D('',#571,#462,#463);
#405=AXIS2_PLACEMENT_3D('',#573,#464,#465);
#406=AXIS2_PLACEMENT_3D('',#575,#466,#467);
#407=AXIS2_PLACEMENT_3D('',#580,#469,#470);
#408=AXIS2_PLACEMENT_3D('',#584,#472,#473);
#409=AXIS2_PLACEMENT_3D('',#588,#475,#476);
#410=AXIS2_PLACEMENT_3D('',#591,#478,#479);
#411=AXIS2_PLACEMENT_3D('',#592,#480,#481);
#412=AXIS2_PLACEMENT_3D('',#594,#482,#483);
#413=AXIS2_PLACEMENT_3D('',#596,#484,#485);
#414=AXIS2_PLACEMENT_3D('',#598,#486,#487);
#415=AXIS2_PLACEMENT_3D('',#603,#489,#490);
#416=AXIS2_PLACEMENT_3D('',#607,#492,#493);
#417=AXIS2_PLACEMENT_3D('',#611,#495,#496);
#418=AXIS2_PLACEMENT_3D('',#615,#498,#499);
#419=AXIS2_PLACEMENT_3D('',#616,#500,#501);
#420=AXIS2_PLACEMENT_3D('',#619,#504,#505);
#421=AXIS2_PLACEMENT_3D('',#622,#508,#509);
#422=AXIS2_PLACEMENT_3D('',#623,#510,#511);
#423=AXIS2_PLACEMENT_3D('',#626,#514,#515);
#424=AXIS2_PLACEMENT_3D('',#629,#518,#519);
#425=AXIS2_PLACEMENT_3D('',#630,#520,#521);
#426=AXIS2_PLACEMENT_3D('',#631,#522,#523);
#427=AXIS2_PLACEMENT_3D('',#632,#524,#525);
#428=AXIS2_PLACEMENT_3D('',#633,#526,#527);
#429=AXIS2_PLACEMENT_3D('',#634,#528,#529);
#430=AXIS2_PLACEMENT_3D('',#635,#530,#531);
#431=AXIS2_PLACEMENT_3D('',#636,#532,#533);
#432=AXIS2_PLACEMENT_3D('',#637,#534,#535);
#433=AXIS2_PLACEMENT_3D('',#639,#536,#537);
#434=AXIS2_PLACEMENT_3D('',#641,#538,#539);
#435=AXIS2_PLACEMENT_3D('',#642,#540,#541);
#436=AXIS2_PLACEMENT_3D('',#644,#542,#543);
#437=AXIS2_PLACEMENT_3D('',#645,#544,#545);
#438=AXIS2_PLACEMENT_3D('',#647,#546,#547);
#439=AXIS2_PLACEMENT_3D('',#648,#548,#549);
#440=AXIS2_PLACEMENT_3D('',#650,#550,#551);
#441=AXIS2_PLACEMENT_3D('',#651,#552,#553);
#442=AXIS2_PLACEMENT_3D('',#653,#554,#555);
#443=AXIS2_PLACEMENT_3D('',#654,#556,#557);
#444=DIRECTION('',(0.,0.,1.));
#445=DIRECTION('',(1.,0.,0.));
#446=DIRECTION('',(0.,0.,1.));
#447=DIRECTION('',(1.,0.,0.));
#448=DIRECTION('',(0.,0.,1.));
#449=DIRECTION('',(1.,0.,0.));
#450=DIRECTION('',(0.,0.,1.));
#451=DIRECTION('',(1.,0.,0.));
#452=DIRECTION('',(0.,0.,-1.));
#453=DIRECTION('',(-1.,-6.12323399573677E-17,0.));
#454=DIRECTION('',(0.,0.,-1.));
#455=DIRECTION('',(-1.,-6.12323399573677E-17,0.));
#456=DIRECTION('',(0.,0.,1.));
#457=DIRECTION('',(0.,1.,0.));
#458=DIRECTION('',(0.,0.,-1.));
#459=DIRECTION('',(0.,-1.,0.));
#460=DIRECTION('',(0.,0.,-1.));
#461=DIRECTION('',(0.,-1.,0.));
#462=DIRECTION('',(0.,0.,-1.));
#463=DIRECTION('',(0.,-1.,0.));
#464=DIRECTION('',(0.,0.,-1.));
#465=DIRECTION('',(0.,-1.,0.));
#466=DIRECTION('',(0.,0.,-1.));
#467=DIRECTION('',(0.,-1.,0.));
#468=DIRECTION('',(-1.,-8.59638711066745E-16,0.));
#469=DIRECTION('',(0.,0.,-1.));
#470=DIRECTION('',(0.,-1.,0.));
#471=DIRECTION('',(-0.965925826289068,-0.258819045102521,0.));
#472=DIRECTION('',(0.,0.,-1.));
#473=DIRECTION('',(0.,-1.,0.));
#474=DIRECTION('',(-0.965925826289068,-0.25881904510252,0.));
#475=DIRECTION('',(0.,0.,-1.));
#476=DIRECTION('',(0.,-1.,0.));
#477=DIRECTION('',(1.,8.59638711066745E-16,0.));
#478=DIRECTION('',(0.,0.,-1.));
#479=DIRECTION('',(0.,-1.,0.));
#480=DIRECTION('',(0.,0.,-1.));
#481=DIRECTION('',(0.,-1.,0.));
#482=DIRECTION('',(0.,0.,-1.));
#483=DIRECTION('',(0.,-1.,0.));
#484=DIRECTION('',(0.,0.,-1.));
#485=DIRECTION('',(0.,-1.,0.));
#486=DIRECTION('',(0.,0.,-1.));
#487=DIRECTION('',(0.,-1.,0.));
#488=DIRECTION('',(-1.,-8.59638711066745E-16,0.));
#489=DIRECTION('',(0.,0.,-1.));
#490=DIRECTION('',(0.,-1.,0.));
#491=DIRECTION('',(1.,8.59638711066745E-16,0.));
#492=DIRECTION('',(0.,0.,-1.));
#493=DIRECTION('',(0.,-1.,0.));
#494=DIRECTION('',(-0.965925826289068,-0.25881904510252,0.));
#495=DIRECTION('',(0.,0.,-1.));
#496=DIRECTION('',(0.,-1.,0.));
#497=DIRECTION('',(-0.965925826289068,-0.258819045102521,0.));
#498=DIRECTION('',(0.,0.,-1.));
#499=DIRECTION('',(0.,-1.,0.));
#500=DIRECTION('',(0.,0.,-1.));
#501=DIRECTION('',(0.,-1.,0.));
#502=DIRECTION('',(0.,0.,-1.));
#503=DIRECTION('',(0.,0.,-1.));
#504=DIRECTION('',(0.258819045102521,-0.965925826289068,0.));
#505=DIRECTION('',(-0.965925826289068,-0.258819045102521,0.));
#506=DIRECTION('',(0.,0.,-1.));
#507=DIRECTION('',(0.,0.,-1.));
#508=DIRECTION('',(0.25881904510252,-0.965925826289068,0.));
#509=DIRECTION('',(-0.965925826289068,-0.25881904510252,0.));
#510=DIRECTION('',(0.,0.,-1.));
#511=DIRECTION('',(0.,-1.,0.));
#512=DIRECTION('',(0.,0.,-1.));
#513=DIRECTION('',(0.,0.,-1.));
#514=DIRECTION('',(-8.59638711066745E-16,1.,0.));
#515=DIRECTION('',(1.,8.59555482346508E-16,0.));
#516=DIRECTION('',(0.,0.,-1.));
#517=DIRECTION('',(0.,0.,-1.));
#518=DIRECTION('',(8.59638711066745E-16,-1.,0.));
#519=DIRECTION('',(-1.,-8.59555482346508E-16,0.));
#520=DIRECTION('',(0.,0.,-1.));
#521=DIRECTION('',(0.,-1.,0.));
#522=DIRECTION('',(0.,0.,-1.));
#523=DIRECTION('',(0.,-1.,0.));
#524=DIRECTION('',(0.,0.,-1.));
#525=DIRECTION('',(0.,-1.,0.));
#526=DIRECTION('',(0.,0.,-1.));
#527=DIRECTION('',(0.,-1.,0.));
#528=DIRECTION('',(0.,0.,-1.));
#529=DIRECTION('',(0.,-1.,0.));
#530=DIRECTION('',(0.,0.,-1.));
#531=DIRECTION('',(0.,-1.,0.));
#532=DIRECTION('',(0.,0.,-1.));
#533=DIRECTION('',(0.,-1.,0.));
#534=DIRECTION('',(0.,0.,1.));
#535=DIRECTION('',(0.,1.,0.));
#536=DIRECTION('',(0.,0.,1.));
#537=DIRECTION('',(0.,1.,0.));
#538=DIRECTION('',(0.,0.,1.));
#539=DIRECTION('',(0.,1.,0.));
#540=DIRECTION('',(0.,0.,1.));
#541=DIRECTION('',(0.,1.,0.));
#542=DIRECTION('',(0.,0.,-1.));
#543=DIRECTION('',(0.,-1.,-2.07011456902516E-18));
#544=DIRECTION('',(0.,0.,1.));
#545=DIRECTION('',(1.,0.,0.));
#546=DIRECTION('',(0.,0.,1.));
#547=DIRECTION('',(0.,1.,0.));
#548=DIRECTION('',(0.,0.,1.));
#549=DIRECTION('',(1.,0.,0.));
#550=DIRECTION('',(0.,0.,1.));
#551=DIRECTION('',(0.,1.,-6.29907103255686E-19));
#552=DIRECTION('',(0.,0.,1.));
#553=DIRECTION('',(1.,0.,0.));
#554=DIRECTION('',(0.,0.,1.));
#555=DIRECTION('',(1.,0.,0.));
#556=DIRECTION('',(0.,0.,1.));
#557=DIRECTION('',(0.,1.,0.));
#558=CARTESIAN_POINT('',(0.,0.,0.));
#559=CARTESIAN_POINT('',(0.,0.,0.));
#560=CARTESIAN_POINT('',(0.,0.,0.));
#561=CARTESIAN_POINT('',(0.,0.,-3.7951910943574));
#562=CARTESIAN_POINT('',(0.,0.,-3.4));
#563=CARTESIAN_POINT('',(-156.9,-9.60735413931099E-15,-3.4));
#564=CARTESIAN_POINT('',(0.,0.,0.));
#565=CARTESIAN_POINT('',(-156.9,-9.60735413931099E-15,0.));
#566=CARTESIAN_POINT('',(0.,0.,-3.4));
#567=CARTESIAN_POINT('',(22.2738636073762,22.2738636073762,-3.4));
#568=CARTESIAN_POINT('',(22.2738636073762,16.7738636073762,-3.4));
#569=CARTESIAN_POINT('',(-22.2738636073762,22.2738636073762,-3.4));
#570=CARTESIAN_POINT('',(-22.2738636073762,16.7738636073762,-3.4));
#571=CARTESIAN_POINT('',(-22.2738636073762,-22.2738636073762,-3.4));
#572=CARTESIAN_POINT('',(-22.2738636073762,-27.7738636073762,-3.4));
#573=CARTESIAN_POINT('',(22.2738636073762,-22.2738636073762,-3.4));
#574=CARTESIAN_POINT('',(22.2738636073762,-27.7738636073762,-3.4));
#575=CARTESIAN_POINT('',(22.396,3.46944695195361E-15,-3.4));
#576=CARTESIAN_POINT('',(22.396,4.99999999999999,-3.4));
#577=CARTESIAN_POINT('',(22.396,-4.99999999999998,-3.4));
#578=CARTESIAN_POINT('',(-4.2981935553337E-15,4.99999999999997,-3.4));
#579=CARTESIAN_POINT('',(19.3690478857377,4.99999999999998,-3.4));
#580=CARTESIAN_POINT('',(4.44089209850063E-16,0.,-3.4));
#581=CARTESIAN_POINT('',(-20.0031588089763,-0.183449346886294,-3.4));
#582=CARTESIAN_POINT('',(-1.29409522551261,4.82962913144535,-3.4));
#583=CARTESIAN_POINT('',(-22.9269700310826,-0.96688220267071,-3.4));
#584=CARTESIAN_POINT('',(-21.63287480557,-5.79651133411605,-3.4));
#585=CARTESIAN_POINT('',(-20.3387795800574,-10.6261404655614,-3.4));
#586=CARTESIAN_POINT('',(1.2940952255126,-4.82962913144535,-3.4));
#587=CARTESIAN_POINT('',(-17.4149683579511,-9.84270760977696,-3.4));
#588=CARTESIAN_POINT('',(4.44089209850063E-16,0.,-3.4));
#589=CARTESIAN_POINT('',(19.3690478857377,-4.99999999999998,-3.4));
#590=CARTESIAN_POINT('',(4.29819355533373E-15,-5.00000000000001,-3.4));
#591=CARTESIAN_POINT('',(0.,0.,-3.4));
#592=CARTESIAN_POINT('',(22.2738636073762,22.2738636073762,0.));
#593=CARTESIAN_POINT('',(22.2738636073762,16.7738636073762,0.));
#594=CARTESIAN_POINT('',(-22.2738636073762,22.2738636073762,0.));
#595=CARTESIAN_POINT('',(-22.2738636073762,16.7738636073762,0.));
#596=CARTESIAN_POINT('',(-22.2738636073762,-22.2738636073762,0.));
#597=CARTESIAN_POINT('',(-22.2738636073762,-27.7738636073762,0.));
#598=CARTESIAN_POINT('',(22.2738636073762,-22.2738636073762,0.));
#599=CARTESIAN_POINT('',(22.2738636073762,-27.7738636073762,0.));
#600=CARTESIAN_POINT('',(-4.2981935553337E-15,4.99999999999997,0.));
#601=CARTESIAN_POINT('',(22.396,4.99999999999999,0.));
#602=CARTESIAN_POINT('',(19.3690478857377,4.99999999999998,0.));
#603=CARTESIAN_POINT('',(22.396,3.46944695195361E-15,0.));
#604=CARTESIAN_POINT('',(22.396,-4.99999999999998,0.));
#605=CARTESIAN_POINT('',(4.29819355533373E-15,-5.00000000000001,0.));
#606=CARTESIAN_POINT('',(19.3690478857377,-4.99999999999998,0.));
#607=CARTESIAN_POINT('',(4.44089209850063E-16,0.,0.));
#608=CARTESIAN_POINT('',(-17.4149683579511,-9.84270760977696,0.));
#609=CARTESIAN_POINT('',(1.2940952255126,-4.82962913144535,0.));
#610=CARTESIAN_POINT('',(-20.3387795800574,-10.6261404655614,0.));
#611=CARTESIAN_POINT('',(-21.63287480557,-5.79651133411605,0.));
#612=CARTESIAN_POINT('',(-22.9269700310826,-0.96688220267071,0.));
#613=CARTESIAN_POINT('',(-1.29409522551261,4.82962913144535,0.));
#614=CARTESIAN_POINT('',(-20.0031588089763,-0.183449346886294,0.));
#615=CARTESIAN_POINT('',(4.44089209850063E-16,0.,0.));
#616=CARTESIAN_POINT('',(0.,0.,0.));
#617=CARTESIAN_POINT('',(-20.0031588089763,-0.183449346886294,0.3));
#618=CARTESIAN_POINT('',(-22.9269700310826,-0.96688220267071,0.3));
#619=CARTESIAN_POINT('',(-20.0031588089763,-0.183449346886284,0.3));
#620=CARTESIAN_POINT('',(-20.3387795800574,-10.6261404655614,0.3));
#621=CARTESIAN_POINT('',(-17.4149683579511,-9.84270760977696,0.3));
#622=CARTESIAN_POINT('',(-17.4149683579511,-9.84270760977696,0.3));
#623=CARTESIAN_POINT('',(-21.63287480557,-5.79651133411605,0.3));
#624=CARTESIAN_POINT('',(19.3690478857377,-4.99999999999998,0.3));
#625=CARTESIAN_POINT('',(22.396,-4.99999999999998,0.3));
#626=CARTESIAN_POINT('',(19.3690478857377,-4.99999999999999,0.3));
#627=CARTESIAN_POINT('',(22.396,4.99999999999999,0.3));
#628=CARTESIAN_POINT('',(19.3690478857377,4.99999999999998,0.3));
#629=CARTESIAN_POINT('',(22.396,4.99999999999999,0.3));
#630=CARTESIAN_POINT('',(22.396,3.46944695195361E-15,0.3));
#631=CARTESIAN_POINT('',(4.44089209850063E-16,0.,0.3));
#632=CARTESIAN_POINT('',(4.44089209850063E-16,0.,0.3));
#633=CARTESIAN_POINT('',(22.2738636073762,-22.2738636073762,0.3));
#634=CARTESIAN_POINT('',(-22.2738636073762,-22.2738636073762,0.3));
#635=CARTESIAN_POINT('',(-22.2738636073762,22.2738636073762,0.3));
#636=CARTESIAN_POINT('',(22.2738636073762,22.2738636073762,0.3));
#637=CARTESIAN_POINT('',(0.,0.,0.30458599999997));
#638=CARTESIAN_POINT('',(0.,154.568061,0.30458599999997));
#639=CARTESIAN_POINT('',(0.,0.,0.135));
#640=CARTESIAN_POINT('',(0.,154.386203,0.135));
#641=CARTESIAN_POINT('',(0.,0.,0.13540635538342));
#642=CARTESIAN_POINT('',(0.,0.,0.1));
#643=CARTESIAN_POINT('',(0.,157.493776,0.1));
#644=CARTESIAN_POINT('',(0.,0.,0.30458599999997));
#645=CARTESIAN_POINT('',(0.,0.,-3.59016062692129));
#646=CARTESIAN_POINT('',(0.,157.493776,-3.59016062692129));
#647=CARTESIAN_POINT('',(0.,0.,-1.7));
#648=CARTESIAN_POINT('',(0.,0.,-3.79477790083405));
#649=CARTESIAN_POINT('',(0.,154.567613762385,-3.79477790083405));
#650=CARTESIAN_POINT('',(0.,0.,-3.58972190807926));
#651=CARTESIAN_POINT('',(0.,0.,-3.62560963258576));
#652=CARTESIAN_POINT('',(0.,154.386203,-3.62560963258576));
#653=CARTESIAN_POINT('',(0.,0.,-3.62560963258576));
#654=CARTESIAN_POINT('',(0.,0.,-1.7));
#655=MECHANICAL_DESIGN_GEOMETRIC_PRESENTATION_REPRESENTATION('',(#376,#377,
#378,#379,#380),#656);
#656=(
GEOMETRIC_REPRESENTATION_CONTEXT(3)
GLOBAL_UNCERTAINTY_ASSIGNED_CONTEXT((#657))
GLOBAL_UNIT_ASSIGNED_CONTEXT((#663,#659,#658))
REPRESENTATION_CONTEXT('335.10-315-04','TOP_LEVEL_ASSEMBLY_PART')
);
#657=UNCERTAINTY_MEASURE_WITH_UNIT(LENGTH_MEASURE(2.E-5),#663,
'DISTANCE_ACCURACY_VALUE','Maximum Tolerance applied to model');
#658=(
NAMED_UNIT(*)
SI_UNIT($,.STERADIAN.)
SOLID_ANGLE_UNIT()
);
#659=(
CONVERSION_BASED_UNIT('DEGREE',#661)
NAMED_UNIT(#660)
PLANE_ANGLE_UNIT()
);
#660=DIMENSIONAL_EXPONENTS(0.,0.,0.,0.,0.,0.,0.);
#661=PLANE_ANGLE_MEASURE_WITH_UNIT(PLANE_ANGLE_MEASURE(0.0174532925),#662);
#662=(
NAMED_UNIT(*)
PLANE_ANGLE_UNIT()
SI_UNIT($,.RADIAN.)
);
#663=(
LENGTH_UNIT()
NAMED_UNIT(*)
SI_UNIT(.MILLI.,.METRE.)
);
ENDSEC;
END-ISO-10303-21;
