ISO-10303-21;
HEADER;
/* Generated by software containing ST-Developer
 * from STEP Tools, Inc. (www.steptools.com) 
 */
/* OPTION: using custom schema-name function */

FILE_DESCRIPTION(
/* description */ (''),
/* implementation_level */ '2;1');

FILE_NAME(
/* name */ '335.10-250-03.40-18.stp',
/* time_stamp */ '2017-09-14T10:21:07+06:00',
/* author */ (''),
/* organization */ (''),
/* preprocessor_version */ 'ST-DEVELOPER v16',
/* originating_system */ 'SIEMENS PLM Software NX 11.0',
/* authorisation */ '');

FILE_SCHEMA (('AUTOMOTIVE_DESIGN { 1 0 10303 214 3 1 1 1 }'));
ENDSEC;

DATA;
#10=CONSTRUCTIVE_GEOMETRY_REPRESENTATION_RELATIONSHIP(
'supplemental geometry','',#24,#11);
#11=CONSTRUCTIVE_GEOMETRY_REPRESENTATION('supplemental geometry',(#364,
#365,#366),#619);
#12=SHAPE_REPRESENTATION_RELATIONSHIP('None',
'relationship between 335.10-250-03.40-18-None and 335.10-250-03.40-18
-None',#24,#13);
#13=ADVANCED_BREP_SHAPE_REPRESENTATION('335.10-250-03.40-18-None',(#49,
#50),#619);
#14=SHAPE_DEFINITION_REPRESENTATION(#15,#24);
#15=PRODUCT_DEFINITION_SHAPE('','',#16);
#16=PRODUCT_DEFINITION(' ','',#18,#17);
#17=PRODUCT_DEFINITION_CONTEXT('part definition',#23,'design');
#18=PRODUCT_DEFINITION_FORMATION_WITH_SPECIFIED_SOURCE(' ',' ',#20,
 .NOT_KNOWN.);
#19=PRODUCT_RELATED_PRODUCT_CATEGORY('part','',(#20));
#20=PRODUCT('335.10-250-03.40-18','335.10-250-03.40-18',' ',(#21));
#21=PRODUCT_CONTEXT(' ',#23,'mechanical');
#22=APPLICATION_PROTOCOL_DEFINITION('international standard',
'automotive_design',2010,#23);
#23=APPLICATION_CONTEXT(
'core data for automotive mechanical design processes');
#24=SHAPE_REPRESENTATION('335.10-250-03.40-18-None',(#363),#619);
#25=SURFACE_OF_REVOLUTION('',#37,#31);
#26=SURFACE_OF_REVOLUTION('',#109,#32);
#27=SURFACE_OF_REVOLUTION('',#110,#33);
#28=SURFACE_OF_REVOLUTION('',#111,#34);
#29=SURFACE_OF_REVOLUTION('',#112,#35);
#30=SURFACE_OF_REVOLUTION('',#38,#36);
#31=AXIS1_PLACEMENT('',#583,#478);
#32=AXIS1_PLACEMENT('',#587,#482);
#33=AXIS1_PLACEMENT('',#591,#486);
#34=AXIS1_PLACEMENT('',#598,#494);
#35=AXIS1_PLACEMENT('',#602,#498);
#36=AXIS1_PLACEMENT('',#617,#499);
#37=B_SPLINE_CURVE_WITH_KNOTS('',3,(#570,#571,#572,#573,#574,#575,#576,
#577,#578,#579,#580,#581,#582),.UNSPECIFIED.,.F.,.F.,(4,3,2,2,2,4),(0.,
0.156308383330848,0.370390907571502,0.582210684505863,0.7909041720401,1.),
 .UNSPECIFIED.);
#38=B_SPLINE_CURVE_WITH_KNOTS('',3,(#603,#604,#605,#606,#607,#608,#609,
#610,#611,#612,#613,#614,#615,#616),.UNSPECIFIED.,.F.,.F.,(4,3,2,2,3,4),
(0.,0.156735063127457,0.37172305755499,0.583952261062279,0.791704438871913,
1.),.UNSPECIFIED.);
#39=SURFACE_STYLE_USAGE(.BOTH.,#41);
#40=SURFACE_STYLE_USAGE(.BOTH.,#42);
#41=SURFACE_SIDE_STYLE('',(#43));
#42=SURFACE_SIDE_STYLE('',(#44));
#43=SURFACE_STYLE_FILL_AREA(#45);
#44=SURFACE_STYLE_FILL_AREA(#46);
#45=FILL_AREA_STYLE('',(#47));
#46=FILL_AREA_STYLE('',(#48));
#47=FILL_AREA_STYLE_COLOUR('',#358);
#48=FILL_AREA_STYLE_COLOUR('',#359);
#49=MANIFOLD_SOLID_BREP('NOCUT',#51);
#50=MANIFOLD_SOLID_BREP('CUT',#52);
#51=CLOSED_SHELL('',(#68,#69,#70,#71,#72,#73,#74,#75,#76,#77,#78));
#52=CLOSED_SHELL('',(#79,#80,#81,#82,#83,#84,#85,#86));
#53=CYLINDRICAL_SURFACE('',#376,20.);
#54=CYLINDRICAL_SURFACE('',#378,20.);
#55=CYLINDRICAL_SURFACE('',#380,124.4);
#56=CYLINDRICAL_SURFACE('',#386,5.);
#57=CYLINDRICAL_SURFACE('',#389,5.);
#58=CYLINDRICAL_SURFACE('',#392,125.001145722505);
#59=CYLINDRICAL_SURFACE('',#397,120.938426361322);
#60=FACE_OUTER_BOUND('',#157,.T.);
#61=FACE_OUTER_BOUND('',#158,.T.);
#62=FACE_OUTER_BOUND('',#163,.T.);
#63=FACE_OUTER_BOUND('',#164,.T.);
#64=FACE_OUTER_BOUND('',#165,.T.);
#65=FACE_OUTER_BOUND('',#166,.T.);
#66=FACE_OUTER_BOUND('',#167,.T.);
#67=FACE_OUTER_BOUND('',#168,.T.);
#68=ADVANCED_FACE('',(#133,#134),#87,.T.);
#69=ADVANCED_FACE('',(#60),#53,.F.);
#70=ADVANCED_FACE('',(#61),#54,.F.);
#71=ADVANCED_FACE('',(#135,#136),#55,.T.);
#72=ADVANCED_FACE('',(#137,#138),#88,.F.);
#73=ADVANCED_FACE('',(#62),#89,.T.);
#74=ADVANCED_FACE('',(#63),#90,.T.);
#75=ADVANCED_FACE('',(#64),#56,.F.);
#76=ADVANCED_FACE('',(#65),#91,.T.);
#77=ADVANCED_FACE('',(#66),#92,.T.);
#78=ADVANCED_FACE('',(#67),#57,.F.);
#79=ADVANCED_FACE('',(#139,#140),#58,.T.);
#80=ADVANCED_FACE('',(#141,#142),#25,.F.);
#81=ADVANCED_FACE('',(#143,#144),#26,.F.);
#82=ADVANCED_FACE('',(#145,#146),#27,.F.);
#83=ADVANCED_FACE('',(#147,#148),#59,.F.);
#84=ADVANCED_FACE('',(#149,#150),#28,.F.);
#85=ADVANCED_FACE('',(#151,#152),#29,.F.);
#86=ADVANCED_FACE('',(#153,#154),#30,.F.);
#87=PLANE('',#373);
#88=PLANE('',#383);
#89=PLANE('',#384);
#90=PLANE('',#385);
#91=PLANE('',#387);
#92=PLANE('',#388);
#93=LINE('',#509,#113);
#94=LINE('',#513,#114);
#95=LINE('',#517,#115);
#96=LINE('',#521,#116);
#97=LINE('',#525,#117);
#98=LINE('',#527,#118);
#99=LINE('',#533,#119);
#100=LINE('',#537,#120);
#101=LINE('',#545,#121);
#102=LINE('',#546,#122);
#103=LINE('',#550,#123);
#104=LINE('',#551,#124);
#105=LINE('',#553,#125);
#106=LINE('',#555,#126);
#107=LINE('',#558,#127);
#108=LINE('',#560,#128);
#109=LINE('',#586,#129);
#110=LINE('',#590,#130);
#111=LINE('',#597,#131);
#112=LINE('',#601,#132);
#113=VECTOR('',#412,1.);
#114=VECTOR('',#415,1.);
#115=VECTOR('',#418,1.);
#116=VECTOR('',#421,1.);
#117=VECTOR('',#426,1.);
#118=VECTOR('',#427,1.);
#119=VECTOR('',#434,1.);
#120=VECTOR('',#437,1.);
#121=VECTOR('',#446,1.);
#122=VECTOR('',#447,1.);
#123=VECTOR('',#450,1.);
#124=VECTOR('',#451,1.);
#125=VECTOR('',#454,1.);
#126=VECTOR('',#457,1.);
#127=VECTOR('',#462,1.);
#128=VECTOR('',#465,1.);
#129=VECTOR('',#481,0.0786917187183945);
#130=VECTOR('',#485,3.81177993617142);
#131=VECTOR('',#493,3.81177993617202);
#132=VECTOR('',#497,0.0786917187180632);
#133=FACE_BOUND('',#155,.T.);
#134=FACE_BOUND('',#156,.T.);
#135=FACE_BOUND('',#159,.T.);
#136=FACE_BOUND('',#160,.T.);
#137=FACE_BOUND('',#161,.T.);
#138=FACE_BOUND('',#162,.T.);
#139=FACE_BOUND('',#169,.T.);
#140=FACE_BOUND('',#170,.T.);
#141=FACE_BOUND('',#171,.T.);
#142=FACE_BOUND('',#172,.T.);
#143=FACE_BOUND('',#173,.T.);
#144=FACE_BOUND('',#174,.T.);
#145=FACE_BOUND('',#175,.T.);
#146=FACE_BOUND('',#176,.T.);
#147=FACE_BOUND('',#177,.T.);
#148=FACE_BOUND('',#178,.T.);
#149=FACE_BOUND('',#179,.T.);
#150=FACE_BOUND('',#180,.T.);
#151=FACE_BOUND('',#181,.T.);
#152=FACE_BOUND('',#182,.T.);
#153=FACE_BOUND('',#183,.T.);
#154=FACE_BOUND('',#184,.T.);
#155=EDGE_LOOP('',(#185));
#156=EDGE_LOOP('',(#186,#187,#188,#189,#190,#191,#192,#193,#194));
#157=EDGE_LOOP('',(#195,#196,#197,#198,#199,#200));
#158=EDGE_LOOP('',(#201,#202,#203,#204));
#159=EDGE_LOOP('',(#205));
#160=EDGE_LOOP('',(#206));
#161=EDGE_LOOP('',(#207));
#162=EDGE_LOOP('',(#208,#209,#210,#211,#212,#213,#214,#215,#216));
#163=EDGE_LOOP('',(#217,#218,#219,#220));
#164=EDGE_LOOP('',(#221,#222,#223,#224));
#165=EDGE_LOOP('',(#225,#226,#227,#228));
#166=EDGE_LOOP('',(#229,#230,#231,#232));
#167=EDGE_LOOP('',(#233,#234,#235,#236));
#168=EDGE_LOOP('',(#237,#238,#239,#240));
#169=EDGE_LOOP('',(#241));
#170=EDGE_LOOP('',(#242));
#171=EDGE_LOOP('',(#243));
#172=EDGE_LOOP('',(#244));
#173=EDGE_LOOP('',(#245));
#174=EDGE_LOOP('',(#246));
#175=EDGE_LOOP('',(#247));
#176=EDGE_LOOP('',(#248));
#177=EDGE_LOOP('',(#249));
#178=EDGE_LOOP('',(#250));
#179=EDGE_LOOP('',(#251));
#180=EDGE_LOOP('',(#252));
#181=EDGE_LOOP('',(#253));
#182=EDGE_LOOP('',(#254));
#183=EDGE_LOOP('',(#255));
#184=EDGE_LOOP('',(#256));
#185=ORIENTED_EDGE('',*,*,#285,.T.);
#186=ORIENTED_EDGE('',*,*,#286,.F.);
#187=ORIENTED_EDGE('',*,*,#287,.T.);
#188=ORIENTED_EDGE('',*,*,#288,.T.);
#189=ORIENTED_EDGE('',*,*,#289,.T.);
#190=ORIENTED_EDGE('',*,*,#290,.F.);
#191=ORIENTED_EDGE('',*,*,#291,.T.);
#192=ORIENTED_EDGE('',*,*,#292,.T.);
#193=ORIENTED_EDGE('',*,*,#293,.T.);
#194=ORIENTED_EDGE('',*,*,#294,.F.);
#195=ORIENTED_EDGE('',*,*,#295,.F.);
#196=ORIENTED_EDGE('',*,*,#286,.T.);
#197=ORIENTED_EDGE('',*,*,#294,.T.);
#198=ORIENTED_EDGE('',*,*,#296,.T.);
#199=ORIENTED_EDGE('',*,*,#297,.F.);
#200=ORIENTED_EDGE('',*,*,#298,.F.);
#201=ORIENTED_EDGE('',*,*,#299,.F.);
#202=ORIENTED_EDGE('',*,*,#300,.F.);
#203=ORIENTED_EDGE('',*,*,#301,.F.);
#204=ORIENTED_EDGE('',*,*,#290,.T.);
#205=ORIENTED_EDGE('',*,*,#285,.F.);
#206=ORIENTED_EDGE('',*,*,#302,.T.);
#207=ORIENTED_EDGE('',*,*,#302,.F.);
#208=ORIENTED_EDGE('',*,*,#303,.T.);
#209=ORIENTED_EDGE('',*,*,#304,.T.);
#210=ORIENTED_EDGE('',*,*,#298,.T.);
#211=ORIENTED_EDGE('',*,*,#297,.T.);
#212=ORIENTED_EDGE('',*,*,#305,.T.);
#213=ORIENTED_EDGE('',*,*,#306,.T.);
#214=ORIENTED_EDGE('',*,*,#307,.T.);
#215=ORIENTED_EDGE('',*,*,#300,.T.);
#216=ORIENTED_EDGE('',*,*,#308,.T.);
#217=ORIENTED_EDGE('',*,*,#301,.T.);
#218=ORIENTED_EDGE('',*,*,#307,.F.);
#219=ORIENTED_EDGE('',*,*,#309,.T.);
#220=ORIENTED_EDGE('',*,*,#291,.F.);
#221=ORIENTED_EDGE('',*,*,#310,.F.);
#222=ORIENTED_EDGE('',*,*,#305,.F.);
#223=ORIENTED_EDGE('',*,*,#296,.F.);
#224=ORIENTED_EDGE('',*,*,#293,.F.);
#225=ORIENTED_EDGE('',*,*,#309,.F.);
#226=ORIENTED_EDGE('',*,*,#306,.F.);
#227=ORIENTED_EDGE('',*,*,#310,.T.);
#228=ORIENTED_EDGE('',*,*,#292,.F.);
#229=ORIENTED_EDGE('',*,*,#295,.T.);
#230=ORIENTED_EDGE('',*,*,#304,.F.);
#231=ORIENTED_EDGE('',*,*,#311,.T.);
#232=ORIENTED_EDGE('',*,*,#287,.F.);
#233=ORIENTED_EDGE('',*,*,#312,.F.);
#234=ORIENTED_EDGE('',*,*,#308,.F.);
#235=ORIENTED_EDGE('',*,*,#299,.T.);
#236=ORIENTED_EDGE('',*,*,#289,.F.);
#237=ORIENTED_EDGE('',*,*,#311,.F.);
#238=ORIENTED_EDGE('',*,*,#303,.F.);
#239=ORIENTED_EDGE('',*,*,#312,.T.);
#240=ORIENTED_EDGE('',*,*,#288,.F.);
#241=ORIENTED_EDGE('',*,*,#313,.T.);
#242=ORIENTED_EDGE('',*,*,#314,.F.);
#243=ORIENTED_EDGE('',*,*,#315,.T.);
#244=ORIENTED_EDGE('',*,*,#313,.F.);
#245=ORIENTED_EDGE('',*,*,#316,.T.);
#246=ORIENTED_EDGE('',*,*,#315,.F.);
#247=ORIENTED_EDGE('',*,*,#317,.T.);
#248=ORIENTED_EDGE('',*,*,#316,.F.);
#249=ORIENTED_EDGE('',*,*,#318,.T.);
#250=ORIENTED_EDGE('',*,*,#317,.F.);
#251=ORIENTED_EDGE('',*,*,#319,.T.);
#252=ORIENTED_EDGE('',*,*,#318,.F.);
#253=ORIENTED_EDGE('',*,*,#320,.T.);
#254=ORIENTED_EDGE('',*,*,#319,.F.);
#255=ORIENTED_EDGE('',*,*,#314,.T.);
#256=ORIENTED_EDGE('',*,*,#320,.F.);
#257=VERTEX_POINT('',#505);
#258=VERTEX_POINT('',#507);
#259=VERTEX_POINT('',#508);
#260=VERTEX_POINT('',#510);
#261=VERTEX_POINT('',#512);
#262=VERTEX_POINT('',#514);
#263=VERTEX_POINT('',#516);
#264=VERTEX_POINT('',#518);
#265=VERTEX_POINT('',#520);
#266=VERTEX_POINT('',#522);
#267=VERTEX_POINT('',#526);
#268=VERTEX_POINT('',#528);
#269=VERTEX_POINT('',#530);
#270=VERTEX_POINT('',#534);
#271=VERTEX_POINT('',#536);
#272=VERTEX_POINT('',#540);
#273=VERTEX_POINT('',#543);
#274=VERTEX_POINT('',#544);
#275=VERTEX_POINT('',#547);
#276=VERTEX_POINT('',#549);
#277=VERTEX_POINT('',#564);
#278=VERTEX_POINT('',#566);
#279=VERTEX_POINT('',#569);
#280=VERTEX_POINT('',#585);
#281=VERTEX_POINT('',#589);
#282=VERTEX_POINT('',#593);
#283=VERTEX_POINT('',#596);
#284=VERTEX_POINT('',#600);
#285=EDGE_CURVE('',#257,#257,#321,.T.);
#286=EDGE_CURVE('',#258,#259,#322,.T.);
#287=EDGE_CURVE('',#258,#260,#93,.T.);
#288=EDGE_CURVE('',#260,#261,#323,.T.);
#289=EDGE_CURVE('',#261,#262,#94,.T.);
#290=EDGE_CURVE('',#263,#262,#324,.T.);
#291=EDGE_CURVE('',#263,#264,#95,.T.);
#292=EDGE_CURVE('',#264,#265,#325,.T.);
#293=EDGE_CURVE('',#265,#266,#96,.T.);
#294=EDGE_CURVE('',#259,#266,#326,.T.);
#295=EDGE_CURVE('',#258,#267,#97,.T.);
#296=EDGE_CURVE('',#266,#268,#98,.T.);
#297=EDGE_CURVE('',#269,#268,#327,.T.);
#298=EDGE_CURVE('',#267,#269,#328,.T.);
#299=EDGE_CURVE('',#270,#262,#99,.T.);
#300=EDGE_CURVE('',#271,#270,#329,.T.);
#301=EDGE_CURVE('',#263,#271,#100,.T.);
#302=EDGE_CURVE('',#272,#272,#330,.T.);
#303=EDGE_CURVE('',#273,#274,#331,.T.);
#304=EDGE_CURVE('',#274,#267,#101,.T.);
#305=EDGE_CURVE('',#268,#275,#102,.T.);
#306=EDGE_CURVE('',#275,#276,#332,.T.);
#307=EDGE_CURVE('',#276,#271,#103,.T.);
#308=EDGE_CURVE('',#270,#273,#104,.T.);
#309=EDGE_CURVE('',#276,#264,#105,.T.);
#310=EDGE_CURVE('',#275,#265,#106,.T.);
#311=EDGE_CURVE('',#274,#260,#107,.T.);
#312=EDGE_CURVE('',#273,#261,#108,.T.);
#313=EDGE_CURVE('',#277,#277,#333,.T.);
#314=EDGE_CURVE('',#278,#278,#334,.T.);
#315=EDGE_CURVE('',#279,#279,#335,.T.);
#316=EDGE_CURVE('',#280,#280,#336,.T.);
#317=EDGE_CURVE('',#281,#281,#337,.T.);
#318=EDGE_CURVE('',#282,#282,#338,.T.);
#319=EDGE_CURVE('',#283,#283,#339,.T.);
#320=EDGE_CURVE('',#284,#284,#340,.T.);
#321=CIRCLE('',#367,124.4);
#322=CIRCLE('',#368,20.);
#323=CIRCLE('',#369,5.);
#324=CIRCLE('',#370,20.);
#325=CIRCLE('',#371,5.);
#326=CIRCLE('',#372,20.);
#327=CIRCLE('',#374,20.);
#328=CIRCLE('',#375,20.);
#329=CIRCLE('',#377,20.);
#330=CIRCLE('',#379,124.4);
#331=CIRCLE('',#381,5.);
#332=CIRCLE('',#382,5.);
#333=CIRCLE('',#390,125.001145722505);
#334=CIRCLE('',#391,125.001145722505);
#335=CIRCLE('',#393,124.81112133325);
#336=CIRCLE('',#394,124.732670949378);
#337=CIRCLE('',#395,120.938426361322);
#338=CIRCLE('',#396,120.938426361322);
#339=CIRCLE('',#398,124.732670949378);
#340=CIRCLE('',#399,124.811121333249);
#341=PRESENTATION_LAYER_ASSIGNMENT('1','Layer 1',(#364,#365,#366));
#342=PRESENTATION_LAYER_ASSIGNMENT('2','Layer 2',(#49));
#343=PRESENTATION_LAYER_ASSIGNMENT('3','Layer 3',(#50));
#344=STYLED_ITEM('',(#349),#364);
#345=STYLED_ITEM('',(#350),#365);
#346=STYLED_ITEM('',(#351),#366);
#347=STYLED_ITEM('',(#352),#49);
#348=STYLED_ITEM('',(#353),#50);
#349=PRESENTATION_STYLE_ASSIGNMENT((#354));
#350=PRESENTATION_STYLE_ASSIGNMENT((#355));
#351=PRESENTATION_STYLE_ASSIGNMENT((#356));
#352=PRESENTATION_STYLE_ASSIGNMENT((#39));
#353=PRESENTATION_STYLE_ASSIGNMENT((#40));
#354=CURVE_STYLE('',#360,POSITIVE_LENGTH_MEASURE(0.18),#357);
#355=CURVE_STYLE('',#361,POSITIVE_LENGTH_MEASURE(0.18),#357);
#356=CURVE_STYLE('',#362,POSITIVE_LENGTH_MEASURE(0.18),#357);
#357=COLOUR_RGB('Medium Maroon',0.6,0.4,0.4);
#358=COLOUR_RGB('Medium Gray',0.490196078431373,0.490196078431373,0.490196078431373);
#359=COLOUR_RGB('Light Gray',0.8,0.8,0.8);
#360=DRAUGHTING_PRE_DEFINED_CURVE_FONT('continuous');
#361=DRAUGHTING_PRE_DEFINED_CURVE_FONT('continuous');
#362=DRAUGHTING_PRE_DEFINED_CURVE_FONT('continuous');
#363=AXIS2_PLACEMENT_3D('',#500,#400,#401);
#364=AXIS2_PLACEMENT_3D('PCS',#501,#402,#403);
#365=AXIS2_PLACEMENT_3D('MCS',#502,#404,#405);
#366=AXIS2_PLACEMENT_3D('CIP',#503,#406,#407);
#367=AXIS2_PLACEMENT_3D('',#504,#408,#409);
#368=AXIS2_PLACEMENT_3D('',#506,#410,#411);
#369=AXIS2_PLACEMENT_3D('',#511,#413,#414);
#370=AXIS2_PLACEMENT_3D('',#515,#416,#417);
#371=AXIS2_PLACEMENT_3D('',#519,#419,#420);
#372=AXIS2_PLACEMENT_3D('',#523,#422,#423);
#373=AXIS2_PLACEMENT_3D('',#524,#424,#425);
#374=AXIS2_PLACEMENT_3D('',#529,#428,#429);
#375=AXIS2_PLACEMENT_3D('',#531,#430,#431);
#376=AXIS2_PLACEMENT_3D('',#532,#432,#433);
#377=AXIS2_PLACEMENT_3D('',#535,#435,#436);
#378=AXIS2_PLACEMENT_3D('',#538,#438,#439);
#379=AXIS2_PLACEMENT_3D('',#539,#440,#441);
#380=AXIS2_PLACEMENT_3D('',#541,#442,#443);
#381=AXIS2_PLACEMENT_3D('',#542,#444,#445);
#382=AXIS2_PLACEMENT_3D('',#548,#448,#449);
#383=AXIS2_PLACEMENT_3D('',#552,#452,#453);
#384=AXIS2_PLACEMENT_3D('',#554,#455,#456);
#385=AXIS2_PLACEMENT_3D('',#556,#458,#459);
#386=AXIS2_PLACEMENT_3D('',#557,#460,#461);
#387=AXIS2_PLACEMENT_3D('',#559,#463,#464);
#388=AXIS2_PLACEMENT_3D('',#561,#466,#467);
#389=AXIS2_PLACEMENT_3D('',#562,#468,#469);
#390=AXIS2_PLACEMENT_3D('',#563,#470,#471);
#391=AXIS2_PLACEMENT_3D('',#565,#472,#473);
#392=AXIS2_PLACEMENT_3D('',#567,#474,#475);
#393=AXIS2_PLACEMENT_3D('',#568,#476,#477);
#394=AXIS2_PLACEMENT_3D('',#584,#479,#480);
#395=AXIS2_PLACEMENT_3D('',#588,#483,#484);
#396=AXIS2_PLACEMENT_3D('',#592,#487,#488);
#397=AXIS2_PLACEMENT_3D('',#594,#489,#490);
#398=AXIS2_PLACEMENT_3D('',#595,#491,#492);
#399=AXIS2_PLACEMENT_3D('',#599,#495,#496);
#400=DIRECTION('',(0.,0.,1.));
#401=DIRECTION('',(1.,0.,0.));
#402=DIRECTION('',(0.,0.,1.));
#403=DIRECTION('',(1.,0.,0.));
#404=DIRECTION('',(0.,0.,1.));
#405=DIRECTION('',(1.,0.,0.));
#406=DIRECTION('',(0.,0.,1.));
#407=DIRECTION('',(1.,0.,0.));
#408=DIRECTION('',(0.,0.,-1.));
#409=DIRECTION('',(-1.,0.,0.));
#410=DIRECTION('',(0.,0.,-1.));
#411=DIRECTION('',(-1.,0.,0.));
#412=DIRECTION('',(-0.965925826289068,-0.258819045102524,0.));
#413=DIRECTION('',(0.,0.,1.));
#414=DIRECTION('',(-1.,0.,0.));
#415=DIRECTION('',(0.965925826289068,0.258819045102523,0.));
#416=DIRECTION('',(0.,0.,-1.));
#417=DIRECTION('',(-1.,0.,0.));
#418=DIRECTION('',(1.,0.,0.));
#419=DIRECTION('',(0.,0.,1.));
#420=DIRECTION('',(-1.,0.,0.));
#421=DIRECTION('',(-1.,0.,0.));
#422=DIRECTION('',(0.,0.,-1.));
#423=DIRECTION('',(-1.,0.,0.));
#424=DIRECTION('',(0.,0.,-1.));
#425=DIRECTION('',(-1.,0.,0.));
#426=DIRECTION('',(0.,0.,1.));
#427=DIRECTION('',(0.,0.,1.));
#428=DIRECTION('',(0.,0.,-1.));
#429=DIRECTION('',(-1.,0.,0.));
#430=DIRECTION('',(0.,0.,-1.));
#431=DIRECTION('',(-1.,0.,0.));
#432=DIRECTION('',(0.,0.,-1.));
#433=DIRECTION('',(-1.,0.,0.));
#434=DIRECTION('',(0.,0.,-1.));
#435=DIRECTION('',(0.,0.,-1.));
#436=DIRECTION('',(-1.,0.,0.));
#437=DIRECTION('',(0.,0.,1.));
#438=DIRECTION('',(0.,0.,-1.));
#439=DIRECTION('',(-1.,0.,0.));
#440=DIRECTION('',(0.,0.,-1.));
#441=DIRECTION('',(-1.,0.,0.));
#442=DIRECTION('',(0.,0.,1.));
#443=DIRECTION('',(1.,0.,0.));
#444=DIRECTION('',(0.,0.,-1.));
#445=DIRECTION('',(-0.965925826289068,-0.258819045102523,0.));
#446=DIRECTION('',(0.965925826289068,0.258819045102524,0.));
#447=DIRECTION('',(1.,0.,0.));
#448=DIRECTION('',(0.,0.,-1.));
#449=DIRECTION('',(1.,1.22464679914735E-16,0.));
#450=DIRECTION('',(-1.,0.,0.));
#451=DIRECTION('',(-0.965925826289068,-0.258819045102523,0.));
#452=DIRECTION('',(0.,0.,-1.));
#453=DIRECTION('',(-1.,0.,0.));
#454=DIRECTION('',(0.,0.,-1.));
#455=DIRECTION('',(0.,1.,0.));
#456=DIRECTION('',(0.,0.,1.));
#457=DIRECTION('',(0.,0.,-1.));
#458=DIRECTION('',(0.,-1.,0.));
#459=DIRECTION('',(0.,0.,-1.));
#460=DIRECTION('',(0.,0.,1.));
#461=DIRECTION('',(1.,0.,0.));
#462=DIRECTION('',(0.,0.,-1.));
#463=DIRECTION('',(0.258819045102524,-0.965925826289068,0.));
#464=DIRECTION('',(0.965925826289068,0.258819045102524,0.));
#465=DIRECTION('',(0.,0.,-1.));
#466=DIRECTION('',(-0.258819045102523,0.965925826289068,0.));
#467=DIRECTION('',(-0.965925826289068,-0.258819045102523,0.));
#468=DIRECTION('',(0.,0.,1.));
#469=DIRECTION('',(1.,0.,0.));
#470=DIRECTION('',(0.,0.,1.));
#471=DIRECTION('',(1.,0.,0.));
#472=DIRECTION('',(0.,0.,1.));
#473=DIRECTION('',(1.,0.,0.));
#474=DIRECTION('',(0.,0.,1.));
#475=DIRECTION('',(-1.,0.,0.));
#476=DIRECTION('',(0.,0.,1.));
#477=DIRECTION('',(1.,0.,0.));
#478=DIRECTION('',(0.,0.,1.));
#479=DIRECTION('',(0.,0.,1.));
#480=DIRECTION('',(1.,0.,0.));
#481=DIRECTION('',(-0.173511666422608,-0.984033559273129,0.0396441148155164));
#482=DIRECTION('',(0.,0.,1.));
#483=DIRECTION('',(0.,0.,1.));
#484=DIRECTION('',(1.,0.,0.));
#485=DIRECTION('',(-0.173257481636218,-0.982592005716241,0.0670432350025757));
#486=DIRECTION('',(0.,0.,1.));
#487=DIRECTION('',(0.,0.,1.));
#488=DIRECTION('',(1.,0.,0.));
#489=DIRECTION('',(0.,0.,1.));
#490=DIRECTION('',(-1.,0.,0.));
#491=DIRECTION('',(0.,0.,1.));
#492=DIRECTION('',(1.,0.,0.));
#493=DIRECTION('',(0.173257481636221,0.982592005716241,0.0670432350025721));
#494=DIRECTION('',(0.,0.,1.));
#495=DIRECTION('',(0.,0.,1.));
#496=DIRECTION('',(1.,0.,0.));
#497=DIRECTION('',(0.173511666422057,0.984033559271313,0.0396441148630232));
#498=DIRECTION('',(0.,0.,1.));
#499=DIRECTION('',(0.,0.,1.));
#500=CARTESIAN_POINT('',(0.,0.,0.));
#501=CARTESIAN_POINT('',(0.,0.,0.));
#502=CARTESIAN_POINT('',(0.,0.,0.));
#503=CARTESIAN_POINT('',(0.,0.,-2.746789103148));
#504=CARTESIAN_POINT('',(-1.2,0.,-2.4));
#505=CARTESIAN_POINT('',(-125.6,0.,-2.4));
#506=CARTESIAN_POINT('',(-1.2,-4.44089209850063E-16,-2.4));
#507=CARTESIAN_POINT('',(-21.1936875894,-0.502450572166887,-2.4));
#508=CARTESIAN_POINT('',(-21.2,-4.44089209850063E-16,-2.4));
#509=CARTESIAN_POINT('',(-2.41371046778328,4.52962913144535,-2.4));
#510=CARTESIAN_POINT('',(-21.7378349072789,-0.648254406556087,-2.4));
#511=CARTESIAN_POINT('',(-20.4437396817663,-5.47788353800143,-2.4));
#512=CARTESIAN_POINT('',(-19.1496444562537,-10.3075126694468,-2.4));
#513=CARTESIAN_POINT('',(0.174479983241954,-5.12962913144534,-2.4));
#514=CARTESIAN_POINT('',(-18.4505565464058,-10.1201926285647,-2.4));
#515=CARTESIAN_POINT('',(-1.2,-4.44089209850063E-16,-2.4));
#516=CARTESIAN_POINT('',(18.164916731037,-5.,-2.4));
#517=CARTESIAN_POINT('',(-1.2,-5.,-2.4));
#518=CARTESIAN_POINT('',(21.164916731037,-5.,-2.4));
#519=CARTESIAN_POINT('',(21.164916731037,0.,-2.4));
#520=CARTESIAN_POINT('',(21.1649167310371,5.,-2.4));
#521=CARTESIAN_POINT('',(-1.2,5.,-2.4));
#522=CARTESIAN_POINT('',(18.1649167310371,5.,-2.4));
#523=CARTESIAN_POINT('',(-1.2,-4.44089209850063E-16,-2.4));
#524=CARTESIAN_POINT('',(-1.2,0.,-2.4));
#525=CARTESIAN_POINT('',(-21.1936875894,-0.502450572166887,2.8));
#526=CARTESIAN_POINT('',(-21.1936875894,-0.502450572166887,0.));
#527=CARTESIAN_POINT('',(18.1649167310371,5.,-25.));
#528=CARTESIAN_POINT('',(18.1649167310371,5.,0.));
#529=CARTESIAN_POINT('',(-1.2,-4.44089209850063E-16,0.));
#530=CARTESIAN_POINT('',(-21.2,-4.44089209850063E-16,0.));
#531=CARTESIAN_POINT('',(-1.2,-4.44089209850063E-16,0.));
#532=CARTESIAN_POINT('',(-1.2,-4.44089209850063E-16,2.8));
#533=CARTESIAN_POINT('',(-18.4505565464058,-10.1201926285647,2.8));
#534=CARTESIAN_POINT('',(-18.4505565464058,-10.1201926285647,0.));
#535=CARTESIAN_POINT('',(-1.2,-4.44089209850063E-16,0.));
#536=CARTESIAN_POINT('',(18.164916731037,-5.,0.));
#537=CARTESIAN_POINT('',(18.164916731037,-5.,-25.));
#538=CARTESIAN_POINT('',(-1.2,-4.44089209850063E-16,2.8));
#539=CARTESIAN_POINT('',(-1.2,0.,0.));
#540=CARTESIAN_POINT('',(-125.6,0.,0.));
#541=CARTESIAN_POINT('',(-1.2,0.,-2.4));
#542=CARTESIAN_POINT('',(-20.4437396817663,-5.47788353800143,0.));
#543=CARTESIAN_POINT('',(-19.1496444562537,-10.3075126694468,0.));
#544=CARTESIAN_POINT('',(-21.7378349072789,-0.648254406556087,0.));
#545=CARTESIAN_POINT('',(-21.7378349072789,-0.648254406556087,0.));
#546=CARTESIAN_POINT('',(18.1649167310371,5.,0.));
#547=CARTESIAN_POINT('',(21.1649167310371,5.,0.));
#548=CARTESIAN_POINT('',(21.164916731037,0.,0.));
#549=CARTESIAN_POINT('',(21.164916731037,-5.,0.));
#550=CARTESIAN_POINT('',(21.164916731037,-5.,0.));
#551=CARTESIAN_POINT('',(-16.2518669773865,-9.5310555341392,0.));
#552=CARTESIAN_POINT('',(-1.2,0.,0.));
#553=CARTESIAN_POINT('',(21.164916731037,-5.,-25.));
#554=CARTESIAN_POINT('',(21.164916731037,-5.,-25.));
#555=CARTESIAN_POINT('',(21.1649167310371,5.,-25.));
#556=CARTESIAN_POINT('',(18.1649167310371,5.,-25.));
#557=CARTESIAN_POINT('',(21.164916731037,0.,-25.));
#558=CARTESIAN_POINT('',(-21.7378349072789,-0.648254406556087,-25.));
#559=CARTESIAN_POINT('',(-21.7378349072789,-0.648254406556087,-25.));
#560=CARTESIAN_POINT('',(-19.1496444562537,-10.3075126694468,-25.));
#561=CARTESIAN_POINT('',(-16.2518669773865,-9.5310555341392,-25.));
#562=CARTESIAN_POINT('',(-20.4437396817663,-5.47788353800143,-25.));
#563=CARTESIAN_POINT('',(-1.2,0.,-2.55059553441958));
#564=CARTESIAN_POINT('',(123.801145722505,0.,-2.55059553441958));
#565=CARTESIAN_POINT('',(-1.2,0.,0.150595534419861));
#566=CARTESIAN_POINT('',(123.801145722505,0.,0.150595534419861));
#567=CARTESIAN_POINT('',(-1.2,0.,0.));
#568=CARTESIAN_POINT('',(-1.2,0.,-2.746789103148));
#569=CARTESIAN_POINT('',(123.61112133325,0.,-2.746789103148));
#570=CARTESIAN_POINT('',(12.1594911478291,124.285197944928,-2.55059553441958));
#571=CARTESIAN_POINT('',(12.1594911478291,124.285197944929,-2.56705188600261));
#572=CARTESIAN_POINT('',(12.1591491968908,124.283258644789,-2.58365070841203));
#573=CARTESIAN_POINT('',(12.1584655576973,124.279381534259,-2.5995575718692));
#574=CARTESIAN_POINT('',(12.1575350456835,124.274104338392,-2.62120865286271));
#575=CARTESIAN_POINT('',(12.1559688208135,124.265221835762,-2.64213535389918));
#576=CARTESIAN_POINT('',(12.151887764168,124.242077013403,-2.67890836295326));
#577=CARTESIAN_POINT('',(12.1493098536593,124.227456956403,-2.69522280457103));
#578=CARTESIAN_POINT('',(12.1435741400653,124.194928108175,-2.72137459365999));
#579=CARTESIAN_POINT('',(12.1403278897691,124.176517707888,-2.73148465262195));
#580=CARTESIAN_POINT('',(12.1335715801081,124.13820077174,-2.74457915253635));
#581=CARTESIAN_POINT('',(12.1299587843111,124.117711588618,-2.74759800609667));
#582=CARTESIAN_POINT('',(12.1264184328798,124.097633257911,-2.746789103148));
#583=CARTESIAN_POINT('',(-1.2,0.,0.));
#584=CARTESIAN_POINT('',(-1.2,0.,-2.7436694396161));
#585=CARTESIAN_POINT('',(123.532670949378,0.,-2.7436694396161));
#586=CARTESIAN_POINT('',(12.1264184328798,124.097633257911,-2.746789103148));
#587=CARTESIAN_POINT('',(-1.2,0.,0.));
#588=CARTESIAN_POINT('',(-1.2,0.,-2.48811538157724));
#589=CARTESIAN_POINT('',(119.738426361322,0.,-2.48811538157724));
#590=CARTESIAN_POINT('',(12.1127645016313,124.020197965855,-2.7436694396161));
#591=CARTESIAN_POINT('',(-1.2,0.,0.));
#592=CARTESIAN_POINT('',(-1.2,0.,0.088115381577538));
#593=CARTESIAN_POINT('',(119.738426361322,0.,0.088115381577538));
#594=CARTESIAN_POINT('',(-1.2,0.,0.));
#595=CARTESIAN_POINT('',(-1.2,0.,0.343669439616389));
#596=CARTESIAN_POINT('',(123.532670949378,0.,0.343669439616389));
#597=CARTESIAN_POINT('',(11.4523451093388,120.274773473023,0.0881153815775378));
#598=CARTESIAN_POINT('',(-1.2,0.,0.));
#599=CARTESIAN_POINT('',(-1.2,0.,0.346789103152005));
#600=CARTESIAN_POINT('',(123.611121333249,0.,0.346789103152005));
#601=CARTESIAN_POINT('',(12.1127645016314,124.020197965855,0.343669439616389));
#602=CARTESIAN_POINT('',(-1.2,0.,0.));
#603=CARTESIAN_POINT('',(12.1264184328797,124.09763325791,0.346789103152005));
#604=CARTESIAN_POINT('',(12.1290902856311,124.112786087844,0.347399570674833));
#605=CARTESIAN_POINT('',(12.1317973743473,124.128138750864,0.345880016543556));
#606=CARTESIAN_POINT('',(12.1344057796282,124.142931752312,0.342257836907336));
#607=CARTESIAN_POINT('',(12.1379614004726,124.163096680165,0.337320299971961));
#608=CARTESIAN_POINT('',(12.1414289979342,124.182762402606,0.328491973899208));
#609=CARTESIAN_POINT('',(12.1475520616439,124.217488022503,0.304595384643893));
#610=CARTESIAN_POINT('',(12.1503091132014,124.233124038877,0.289365841330268));
#611=CARTESIAN_POINT('',(12.1547525016247,124.25832374686,0.254997508024526));
#612=CARTESIAN_POINT('',(12.1565024314342,124.268248091974,0.235440896554645));
#613=CARTESIAN_POINT('',(12.1576881773645,124.274972791311,0.214961463933582));
#614=CARTESIAN_POINT('',(12.15887538698,124.28170579162,0.194456751492942));
#615=CARTESIAN_POINT('',(12.1594911478292,124.285197944929,0.172368765976657));
#616=CARTESIAN_POINT('',(12.1594911478291,124.285197944928,0.150595534419862));
#617=CARTESIAN_POINT('',(-1.2,0.,0.));
#618=MECHANICAL_DESIGN_GEOMETRIC_PRESENTATION_REPRESENTATION('',(#344,#345,
#346,#347,#348),#619);
#619=(
GEOMETRIC_REPRESENTATION_CONTEXT(3)
GLOBAL_UNCERTAINTY_ASSIGNED_CONTEXT((#620))
GLOBAL_UNIT_ASSIGNED_CONTEXT((#626,#622,#621))
REPRESENTATION_CONTEXT('335.10-250-03','TOP_LEVEL_ASSEMBLY_PART')
);
#620=UNCERTAINTY_MEASURE_WITH_UNIT(LENGTH_MEASURE(2.E-5),#626,
'DISTANCE_ACCURACY_VALUE','Maximum Tolerance applied to model');
#621=(
NAMED_UNIT(*)
SI_UNIT($,.STERADIAN.)
SOLID_ANGLE_UNIT()
);
#622=(
CONVERSION_BASED_UNIT('DEGREE',#624)
NAMED_UNIT(#623)
PLANE_ANGLE_UNIT()
);
#623=DIMENSIONAL_EXPONENTS(0.,0.,0.,0.,0.,0.,0.);
#624=PLANE_ANGLE_MEASURE_WITH_UNIT(PLANE_ANGLE_MEASURE(0.0174532925),#625);
#625=(
NAMED_UNIT(*)
PLANE_ANGLE_UNIT()
SI_UNIT($,.RADIAN.)
);
#626=(
LENGTH_UNIT()
NAMED_UNIT(*)
SI_UNIT(.MILLI.,.METRE.)
);
ENDSEC;
END-ISO-10303-21;
