ISO-10303-21;
HEADER;
/* Generated by software containing ST-Developer
 * from STEP Tools, Inc. (www.steptools.com) 
 */
/* OPTION: using custom schema-name function */

FILE_DESCRIPTION(
/* description */ (''),
/* implementation_level */ '2;1');

FILE_NAME(
/* name */ '335.10-200-03.40-14.stp',
/* time_stamp */ '2017-09-14T10:21:07+06:00',
/* author */ (''),
/* organization */ (''),
/* preprocessor_version */ 'ST-DEVELOPER v16',
/* originating_system */ 'SIEMENS PLM Software NX 11.0',
/* authorisation */ '');

FILE_SCHEMA (('AUTOMOTIVE_DESIGN { 1 0 10303 214 3 1 1 1 }'));
ENDSEC;

DATA;
#10=CONSTRUCTIVE_GEOMETRY_REPRESENTATION_RELATIONSHIP(
'supplemental geometry','',#24,#11);
#11=CONSTRUCTIVE_GEOMETRY_REPRESENTATION('supplemental geometry',(#420,
#421,#422),#700);
#12=SHAPE_REPRESENTATION_RELATIONSHIP('None',
'relationship between 335.10-200-03.40-14-None and 335.10-200-03.40-14
-None',#24,#13);
#13=ADVANCED_BREP_SHAPE_REPRESENTATION('335.10-200-03.40-14-None',(#40,
#41),#700);
#14=SHAPE_DEFINITION_REPRESENTATION(#15,#24);
#15=PRODUCT_DEFINITION_SHAPE('','',#16);
#16=PRODUCT_DEFINITION(' ','',#18,#17);
#17=PRODUCT_DEFINITION_CONTEXT('part definition',#23,'design');
#18=PRODUCT_DEFINITION_FORMATION_WITH_SPECIFIED_SOURCE(' ',' ',#20,
 .NOT_KNOWN.);
#19=PRODUCT_RELATED_PRODUCT_CATEGORY('part','',(#20));
#20=PRODUCT('335.10-200-03.40-14','335.10-200-03.40-14',' ',(#21));
#21=PRODUCT_CONTEXT(' ',#23,'mechanical');
#22=APPLICATION_PROTOCOL_DEFINITION('international standard',
'automotive_design',2010,#23);
#23=APPLICATION_CONTEXT(
'core data for automotive mechanical design processes');
#24=SHAPE_REPRESENTATION('335.10-200-03.40-14-None',(#419),#700);
#25=SURFACE_OF_REVOLUTION('',#27,#26);
#26=AXIS1_PLACEMENT('',#688,#580);
#27=ELLIPSE('',#464,1.77465118736438,0.750000000000004);
#28=CONICAL_SURFACE('',#462,98.6198265062913,40.7359174028394);
#29=CONICAL_SURFACE('',#466,99.0835842049457,40.7359174028453);
#30=SURFACE_STYLE_USAGE(.BOTH.,#32);
#31=SURFACE_STYLE_USAGE(.BOTH.,#33);
#32=SURFACE_SIDE_STYLE('',(#34));
#33=SURFACE_SIDE_STYLE('',(#35));
#34=SURFACE_STYLE_FILL_AREA(#36);
#35=SURFACE_STYLE_FILL_AREA(#37);
#36=FILL_AREA_STYLE('',(#38));
#37=FILL_AREA_STYLE('',(#39));
#38=FILL_AREA_STYLE_COLOUR('',#414);
#39=FILL_AREA_STYLE_COLOUR('',#415);
#40=MANIFOLD_SOLID_BREP('NOCUT',#42);
#41=MANIFOLD_SOLID_BREP('CUT',#43);
#42=CLOSED_SHELL('',(#64,#65,#66,#67,#68,#69,#70,#71,#72,#73,#74,#75,#76,
#77,#78));
#43=CLOSED_SHELL('',(#79,#80,#81,#82,#83,#84,#85,#86));
#44=FACE_OUTER_BOUND('',#179,.T.);
#45=FACE_OUTER_BOUND('',#180,.T.);
#46=FACE_OUTER_BOUND('',#181,.T.);
#47=FACE_OUTER_BOUND('',#182,.T.);
#48=FACE_OUTER_BOUND('',#183,.T.);
#49=FACE_OUTER_BOUND('',#184,.T.);
#50=FACE_OUTER_BOUND('',#185,.T.);
#51=FACE_OUTER_BOUND('',#186,.T.);
#52=CYLINDRICAL_SURFACE('',#443,99.4);
#53=CYLINDRICAL_SURFACE('',#446,5.);
#54=CYLINDRICAL_SURFACE('',#449,4.99999999999999);
#55=CYLINDRICAL_SURFACE('',#450,20.004);
#56=CYLINDRICAL_SURFACE('',#451,20.004);
#57=CYLINDRICAL_SURFACE('',#452,5.5);
#58=CYLINDRICAL_SURFACE('',#453,5.5);
#59=CYLINDRICAL_SURFACE('',#454,5.5);
#60=CYLINDRICAL_SURFACE('',#455,5.5);
#61=CYLINDRICAL_SURFACE('',#460,98.6198265062913);
#62=CYLINDRICAL_SURFACE('',#468,98.6198265062913);
#63=CYLINDRICAL_SURFACE('',#471,100.);
#64=ADVANCED_FACE('',(#127,#128,#129,#130,#131,#132),#87,.T.);
#65=ADVANCED_FACE('',(#133,#134,#135,#136,#137,#138),#88,.F.);
#66=ADVANCED_FACE('',(#139,#140),#52,.T.);
#67=ADVANCED_FACE('',(#44),#89,.T.);
#68=ADVANCED_FACE('',(#45),#90,.F.);
#69=ADVANCED_FACE('',(#46),#53,.F.);
#70=ADVANCED_FACE('',(#47),#91,.T.);
#71=ADVANCED_FACE('',(#48),#92,.T.);
#72=ADVANCED_FACE('',(#49),#54,.F.);
#73=ADVANCED_FACE('',(#50),#55,.F.);
#74=ADVANCED_FACE('',(#51),#56,.F.);
#75=ADVANCED_FACE('',(#141,#142),#57,.F.);
#76=ADVANCED_FACE('',(#143,#144),#58,.F.);
#77=ADVANCED_FACE('',(#145,#146),#59,.F.);
#78=ADVANCED_FACE('',(#147,#148),#60,.F.);
#79=ADVANCED_FACE('',(#149,#150),#93,.F.);
#80=ADVANCED_FACE('',(#151,#152),#61,.F.);
#81=ADVANCED_FACE('',(#153,#154),#28,.F.);
#82=ADVANCED_FACE('',(#155,#156),#25,.T.);
#83=ADVANCED_FACE('',(#157,#158),#29,.F.);
#84=ADVANCED_FACE('',(#159,#160),#62,.F.);
#85=ADVANCED_FACE('',(#161,#162),#94,.F.);
#86=ADVANCED_FACE('',(#163,#164),#63,.T.);
#87=PLANE('',#432);
#88=PLANE('',#442);
#89=PLANE('',#444);
#90=PLANE('',#445);
#91=PLANE('',#447);
#92=PLANE('',#448);
#93=PLANE('',#458);
#94=PLANE('',#470);
#95=LINE('',#612,#111);
#96=LINE('',#616,#112);
#97=LINE('',#620,#113);
#98=LINE('',#624,#114);
#99=LINE('',#636,#115);
#100=LINE('',#641,#116);
#101=LINE('',#645,#117);
#102=LINE('',#649,#118);
#103=LINE('',#654,#119);
#104=LINE('',#655,#120);
#105=LINE('',#657,#121);
#106=LINE('',#658,#122);
#107=LINE('',#661,#123);
#108=LINE('',#662,#124);
#109=LINE('',#664,#125);
#110=LINE('',#665,#126);
#111=VECTOR('',#492,1.);
#112=VECTOR('',#495,1.);
#113=VECTOR('',#498,1.);
#114=VECTOR('',#501,1.);
#115=VECTOR('',#514,1.);
#116=VECTOR('',#517,1.);
#117=VECTOR('',#520,1.);
#118=VECTOR('',#523,1.);
#119=VECTOR('',#530,1.);
#120=VECTOR('',#531,1.);
#121=VECTOR('',#534,1.);
#122=VECTOR('',#535,1.);
#123=VECTOR('',#540,1.);
#124=VECTOR('',#541,1.);
#125=VECTOR('',#544,1.);
#126=VECTOR('',#545,1.);
#127=FACE_BOUND('',#165,.T.);
#128=FACE_BOUND('',#166,.T.);
#129=FACE_BOUND('',#167,.T.);
#130=FACE_BOUND('',#168,.T.);
#131=FACE_BOUND('',#169,.T.);
#132=FACE_BOUND('',#170,.T.);
#133=FACE_BOUND('',#171,.T.);
#134=FACE_BOUND('',#172,.T.);
#135=FACE_BOUND('',#173,.T.);
#136=FACE_BOUND('',#174,.T.);
#137=FACE_BOUND('',#175,.T.);
#138=FACE_BOUND('',#176,.T.);
#139=FACE_BOUND('',#177,.T.);
#140=FACE_BOUND('',#178,.T.);
#141=FACE_BOUND('',#187,.T.);
#142=FACE_BOUND('',#188,.T.);
#143=FACE_BOUND('',#189,.T.);
#144=FACE_BOUND('',#190,.T.);
#145=FACE_BOUND('',#191,.T.);
#146=FACE_BOUND('',#192,.T.);
#147=FACE_BOUND('',#193,.T.);
#148=FACE_BOUND('',#194,.T.);
#149=FACE_BOUND('',#195,.T.);
#150=FACE_BOUND('',#196,.T.);
#151=FACE_BOUND('',#197,.T.);
#152=FACE_BOUND('',#198,.T.);
#153=FACE_BOUND('',#199,.T.);
#154=FACE_BOUND('',#200,.T.);
#155=FACE_BOUND('',#201,.T.);
#156=FACE_BOUND('',#202,.T.);
#157=FACE_BOUND('',#203,.T.);
#158=FACE_BOUND('',#204,.T.);
#159=FACE_BOUND('',#205,.T.);
#160=FACE_BOUND('',#206,.T.);
#161=FACE_BOUND('',#207,.T.);
#162=FACE_BOUND('',#208,.T.);
#163=FACE_BOUND('',#209,.T.);
#164=FACE_BOUND('',#210,.T.);
#165=EDGE_LOOP('',(#211));
#166=EDGE_LOOP('',(#212));
#167=EDGE_LOOP('',(#213));
#168=EDGE_LOOP('',(#214));
#169=EDGE_LOOP('',(#215));
#170=EDGE_LOOP('',(#216,#217,#218,#219,#220,#221,#222,#223));
#171=EDGE_LOOP('',(#224));
#172=EDGE_LOOP('',(#225));
#173=EDGE_LOOP('',(#226));
#174=EDGE_LOOP('',(#227));
#175=EDGE_LOOP('',(#228));
#176=EDGE_LOOP('',(#229,#230,#231,#232,#233,#234,#235,#236));
#177=EDGE_LOOP('',(#237));
#178=EDGE_LOOP('',(#238));
#179=EDGE_LOOP('',(#239,#240,#241,#242));
#180=EDGE_LOOP('',(#243,#244,#245,#246));
#181=EDGE_LOOP('',(#247,#248,#249,#250));
#182=EDGE_LOOP('',(#251,#252,#253,#254));
#183=EDGE_LOOP('',(#255,#256,#257,#258));
#184=EDGE_LOOP('',(#259,#260,#261,#262));
#185=EDGE_LOOP('',(#263,#264,#265,#266));
#186=EDGE_LOOP('',(#267,#268,#269,#270));
#187=EDGE_LOOP('',(#271));
#188=EDGE_LOOP('',(#272));
#189=EDGE_LOOP('',(#273));
#190=EDGE_LOOP('',(#274));
#191=EDGE_LOOP('',(#275));
#192=EDGE_LOOP('',(#276));
#193=EDGE_LOOP('',(#277));
#194=EDGE_LOOP('',(#278));
#195=EDGE_LOOP('',(#279));
#196=EDGE_LOOP('',(#280));
#197=EDGE_LOOP('',(#281));
#198=EDGE_LOOP('',(#282));
#199=EDGE_LOOP('',(#283));
#200=EDGE_LOOP('',(#284));
#201=EDGE_LOOP('',(#285));
#202=EDGE_LOOP('',(#286));
#203=EDGE_LOOP('',(#287));
#204=EDGE_LOOP('',(#288));
#205=EDGE_LOOP('',(#289));
#206=EDGE_LOOP('',(#290));
#207=EDGE_LOOP('',(#291));
#208=EDGE_LOOP('',(#292));
#209=EDGE_LOOP('',(#293));
#210=EDGE_LOOP('',(#294));
#211=ORIENTED_EDGE('',*,*,#329,.F.);
#212=ORIENTED_EDGE('',*,*,#330,.F.);
#213=ORIENTED_EDGE('',*,*,#331,.F.);
#214=ORIENTED_EDGE('',*,*,#332,.F.);
#215=ORIENTED_EDGE('',*,*,#333,.T.);
#216=ORIENTED_EDGE('',*,*,#334,.F.);
#217=ORIENTED_EDGE('',*,*,#335,.T.);
#218=ORIENTED_EDGE('',*,*,#336,.F.);
#219=ORIENTED_EDGE('',*,*,#337,.T.);
#220=ORIENTED_EDGE('',*,*,#338,.F.);
#221=ORIENTED_EDGE('',*,*,#339,.F.);
#222=ORIENTED_EDGE('',*,*,#340,.F.);
#223=ORIENTED_EDGE('',*,*,#341,.T.);
#224=ORIENTED_EDGE('',*,*,#342,.T.);
#225=ORIENTED_EDGE('',*,*,#343,.T.);
#226=ORIENTED_EDGE('',*,*,#344,.T.);
#227=ORIENTED_EDGE('',*,*,#345,.T.);
#228=ORIENTED_EDGE('',*,*,#346,.F.);
#229=ORIENTED_EDGE('',*,*,#347,.F.);
#230=ORIENTED_EDGE('',*,*,#348,.T.);
#231=ORIENTED_EDGE('',*,*,#349,.F.);
#232=ORIENTED_EDGE('',*,*,#350,.T.);
#233=ORIENTED_EDGE('',*,*,#351,.T.);
#234=ORIENTED_EDGE('',*,*,#352,.T.);
#235=ORIENTED_EDGE('',*,*,#353,.F.);
#236=ORIENTED_EDGE('',*,*,#354,.T.);
#237=ORIENTED_EDGE('',*,*,#333,.F.);
#238=ORIENTED_EDGE('',*,*,#346,.T.);
#239=ORIENTED_EDGE('',*,*,#355,.F.);
#240=ORIENTED_EDGE('',*,*,#353,.T.);
#241=ORIENTED_EDGE('',*,*,#356,.T.);
#242=ORIENTED_EDGE('',*,*,#337,.F.);
#243=ORIENTED_EDGE('',*,*,#339,.T.);
#244=ORIENTED_EDGE('',*,*,#357,.F.);
#245=ORIENTED_EDGE('',*,*,#351,.F.);
#246=ORIENTED_EDGE('',*,*,#358,.T.);
#247=ORIENTED_EDGE('',*,*,#338,.T.);
#248=ORIENTED_EDGE('',*,*,#356,.F.);
#249=ORIENTED_EDGE('',*,*,#352,.F.);
#250=ORIENTED_EDGE('',*,*,#357,.T.);
#251=ORIENTED_EDGE('',*,*,#359,.F.);
#252=ORIENTED_EDGE('',*,*,#349,.T.);
#253=ORIENTED_EDGE('',*,*,#360,.T.);
#254=ORIENTED_EDGE('',*,*,#341,.F.);
#255=ORIENTED_EDGE('',*,*,#361,.F.);
#256=ORIENTED_EDGE('',*,*,#347,.T.);
#257=ORIENTED_EDGE('',*,*,#362,.T.);
#258=ORIENTED_EDGE('',*,*,#335,.F.);
#259=ORIENTED_EDGE('',*,*,#334,.T.);
#260=ORIENTED_EDGE('',*,*,#360,.F.);
#261=ORIENTED_EDGE('',*,*,#348,.F.);
#262=ORIENTED_EDGE('',*,*,#361,.T.);
#263=ORIENTED_EDGE('',*,*,#340,.T.);
#264=ORIENTED_EDGE('',*,*,#358,.F.);
#265=ORIENTED_EDGE('',*,*,#350,.F.);
#266=ORIENTED_EDGE('',*,*,#359,.T.);
#267=ORIENTED_EDGE('',*,*,#336,.T.);
#268=ORIENTED_EDGE('',*,*,#362,.F.);
#269=ORIENTED_EDGE('',*,*,#354,.F.);
#270=ORIENTED_EDGE('',*,*,#355,.T.);
#271=ORIENTED_EDGE('',*,*,#332,.T.);
#272=ORIENTED_EDGE('',*,*,#345,.F.);
#273=ORIENTED_EDGE('',*,*,#331,.T.);
#274=ORIENTED_EDGE('',*,*,#344,.F.);
#275=ORIENTED_EDGE('',*,*,#330,.T.);
#276=ORIENTED_EDGE('',*,*,#343,.F.);
#277=ORIENTED_EDGE('',*,*,#329,.T.);
#278=ORIENTED_EDGE('',*,*,#342,.F.);
#279=ORIENTED_EDGE('',*,*,#363,.F.);
#280=ORIENTED_EDGE('',*,*,#364,.T.);
#281=ORIENTED_EDGE('',*,*,#365,.F.);
#282=ORIENTED_EDGE('',*,*,#363,.T.);
#283=ORIENTED_EDGE('',*,*,#366,.F.);
#284=ORIENTED_EDGE('',*,*,#365,.T.);
#285=ORIENTED_EDGE('',*,*,#367,.F.);
#286=ORIENTED_EDGE('',*,*,#366,.T.);
#287=ORIENTED_EDGE('',*,*,#368,.F.);
#288=ORIENTED_EDGE('',*,*,#367,.T.);
#289=ORIENTED_EDGE('',*,*,#369,.F.);
#290=ORIENTED_EDGE('',*,*,#368,.T.);
#291=ORIENTED_EDGE('',*,*,#370,.F.);
#292=ORIENTED_EDGE('',*,*,#369,.T.);
#293=ORIENTED_EDGE('',*,*,#364,.F.);
#294=ORIENTED_EDGE('',*,*,#370,.T.);
#295=VERTEX_POINT('',#600);
#296=VERTEX_POINT('',#602);
#297=VERTEX_POINT('',#604);
#298=VERTEX_POINT('',#606);
#299=VERTEX_POINT('',#608);
#300=VERTEX_POINT('',#610);
#301=VERTEX_POINT('',#611);
#302=VERTEX_POINT('',#613);
#303=VERTEX_POINT('',#615);
#304=VERTEX_POINT('',#617);
#305=VERTEX_POINT('',#619);
#306=VERTEX_POINT('',#621);
#307=VERTEX_POINT('',#623);
#308=VERTEX_POINT('',#627);
#309=VERTEX_POINT('',#629);
#310=VERTEX_POINT('',#631);
#311=VERTEX_POINT('',#633);
#312=VERTEX_POINT('',#635);
#313=VERTEX_POINT('',#637);
#314=VERTEX_POINT('',#638);
#315=VERTEX_POINT('',#640);
#316=VERTEX_POINT('',#642);
#317=VERTEX_POINT('',#644);
#318=VERTEX_POINT('',#646);
#319=VERTEX_POINT('',#648);
#320=VERTEX_POINT('',#650);
#321=VERTEX_POINT('',#675);
#322=VERTEX_POINT('',#677);
#323=VERTEX_POINT('',#680);
#324=VERTEX_POINT('',#683);
#325=VERTEX_POINT('',#686);
#326=VERTEX_POINT('',#690);
#327=VERTEX_POINT('',#693);
#328=VERTEX_POINT('',#696);
#329=EDGE_CURVE('',#295,#295,#371,.T.);
#330=EDGE_CURVE('',#296,#296,#372,.T.);
#331=EDGE_CURVE('',#297,#297,#373,.T.);
#332=EDGE_CURVE('',#298,#298,#374,.T.);
#333=EDGE_CURVE('',#299,#299,#375,.T.);
#334=EDGE_CURVE('',#300,#301,#376,.T.);
#335=EDGE_CURVE('',#300,#302,#95,.T.);
#336=EDGE_CURVE('',#303,#302,#377,.T.);
#337=EDGE_CURVE('',#303,#304,#96,.T.);
#338=EDGE_CURVE('',#305,#304,#378,.T.);
#339=EDGE_CURVE('',#306,#305,#97,.T.);
#340=EDGE_CURVE('',#307,#306,#379,.T.);
#341=EDGE_CURVE('',#307,#301,#98,.T.);
#342=EDGE_CURVE('',#308,#308,#380,.T.);
#343=EDGE_CURVE('',#309,#309,#381,.T.);
#344=EDGE_CURVE('',#310,#310,#382,.T.);
#345=EDGE_CURVE('',#311,#311,#383,.T.);
#346=EDGE_CURVE('',#312,#312,#384,.T.);
#347=EDGE_CURVE('',#313,#314,#99,.T.);
#348=EDGE_CURVE('',#313,#315,#385,.T.);
#349=EDGE_CURVE('',#316,#315,#100,.T.);
#350=EDGE_CURVE('',#316,#317,#386,.T.);
#351=EDGE_CURVE('',#317,#318,#101,.T.);
#352=EDGE_CURVE('',#318,#319,#387,.T.);
#353=EDGE_CURVE('',#320,#319,#102,.T.);
#354=EDGE_CURVE('',#320,#314,#388,.T.);
#355=EDGE_CURVE('',#320,#303,#103,.T.);
#356=EDGE_CURVE('',#319,#304,#104,.T.);
#357=EDGE_CURVE('',#318,#305,#105,.T.);
#358=EDGE_CURVE('',#317,#306,#106,.T.);
#359=EDGE_CURVE('',#316,#307,#107,.T.);
#360=EDGE_CURVE('',#315,#301,#108,.T.);
#361=EDGE_CURVE('',#313,#300,#109,.T.);
#362=EDGE_CURVE('',#314,#302,#110,.T.);
#363=EDGE_CURVE('',#321,#321,#389,.T.);
#364=EDGE_CURVE('',#322,#322,#390,.T.);
#365=EDGE_CURVE('',#323,#323,#391,.T.);
#366=EDGE_CURVE('',#324,#324,#392,.T.);
#367=EDGE_CURVE('',#325,#325,#393,.T.);
#368=EDGE_CURVE('',#326,#326,#394,.T.);
#369=EDGE_CURVE('',#327,#327,#395,.T.);
#370=EDGE_CURVE('',#328,#328,#396,.T.);
#371=CIRCLE('',#423,5.5);
#372=CIRCLE('',#424,5.5);
#373=CIRCLE('',#425,5.5);
#374=CIRCLE('',#426,5.5);
#375=CIRCLE('',#427,99.4);
#376=CIRCLE('',#428,4.99999999999999);
#377=CIRCLE('',#429,20.004);
#378=CIRCLE('',#430,5.);
#379=CIRCLE('',#431,20.004);
#380=CIRCLE('',#433,5.5);
#381=CIRCLE('',#434,5.5);
#382=CIRCLE('',#435,5.5);
#383=CIRCLE('',#436,5.5);
#384=CIRCLE('',#437,99.4);
#385=CIRCLE('',#438,4.99999999999999);
#386=CIRCLE('',#439,20.004);
#387=CIRCLE('',#440,5.);
#388=CIRCLE('',#441,20.004);
#389=CIRCLE('',#456,98.6198265062913);
#390=CIRCLE('',#457,100.);
#391=CIRCLE('',#459,98.6198265062913);
#392=CIRCLE('',#461,99.0835842049455);
#393=CIRCLE('',#463,99.0835842049457);
#394=CIRCLE('',#465,98.6198265062913);
#395=CIRCLE('',#467,98.6198265062913);
#396=CIRCLE('',#469,100.);
#397=PRESENTATION_LAYER_ASSIGNMENT('1','Layer 1',(#420,#421,#422));
#398=PRESENTATION_LAYER_ASSIGNMENT('2','Layer 2',(#40));
#399=PRESENTATION_LAYER_ASSIGNMENT('3','Layer 3',(#41));
#400=STYLED_ITEM('',(#405),#420);
#401=STYLED_ITEM('',(#406),#421);
#402=STYLED_ITEM('',(#407),#422);
#403=STYLED_ITEM('',(#408),#40);
#404=STYLED_ITEM('',(#409),#41);
#405=PRESENTATION_STYLE_ASSIGNMENT((#410));
#406=PRESENTATION_STYLE_ASSIGNMENT((#411));
#407=PRESENTATION_STYLE_ASSIGNMENT((#412));
#408=PRESENTATION_STYLE_ASSIGNMENT((#30));
#409=PRESENTATION_STYLE_ASSIGNMENT((#31));
#410=CURVE_STYLE('',#416,POSITIVE_LENGTH_MEASURE(0.18),#413);
#411=CURVE_STYLE('',#417,POSITIVE_LENGTH_MEASURE(0.18),#413);
#412=CURVE_STYLE('',#418,POSITIVE_LENGTH_MEASURE(0.18),#413);
#413=COLOUR_RGB('Medium Maroon',0.6,0.4,0.4);
#414=COLOUR_RGB('Medium Gray',0.490196078431373,0.490196078431373,0.490196078431373);
#415=COLOUR_RGB('Light Gray',0.8,0.8,0.8);
#416=DRAUGHTING_PRE_DEFINED_CURVE_FONT('continuous');
#417=DRAUGHTING_PRE_DEFINED_CURVE_FONT('continuous');
#418=DRAUGHTING_PRE_DEFINED_CURVE_FONT('continuous');
#419=AXIS2_PLACEMENT_3D('',#595,#472,#473);
#420=AXIS2_PLACEMENT_3D('PCS',#596,#474,#475);
#421=AXIS2_PLACEMENT_3D('MCS',#597,#476,#477);
#422=AXIS2_PLACEMENT_3D('CIP',#598,#478,#479);
#423=AXIS2_PLACEMENT_3D('',#599,#480,#481);
#424=AXIS2_PLACEMENT_3D('',#601,#482,#483);
#425=AXIS2_PLACEMENT_3D('',#603,#484,#485);
#426=AXIS2_PLACEMENT_3D('',#605,#486,#487);
#427=AXIS2_PLACEMENT_3D('',#607,#488,#489);
#428=AXIS2_PLACEMENT_3D('',#609,#490,#491);
#429=AXIS2_PLACEMENT_3D('',#614,#493,#494);
#430=AXIS2_PLACEMENT_3D('',#618,#496,#497);
#431=AXIS2_PLACEMENT_3D('',#622,#499,#500);
#432=AXIS2_PLACEMENT_3D('',#625,#502,#503);
#433=AXIS2_PLACEMENT_3D('',#626,#504,#505);
#434=AXIS2_PLACEMENT_3D('',#628,#506,#507);
#435=AXIS2_PLACEMENT_3D('',#630,#508,#509);
#436=AXIS2_PLACEMENT_3D('',#632,#510,#511);
#437=AXIS2_PLACEMENT_3D('',#634,#512,#513);
#438=AXIS2_PLACEMENT_3D('',#639,#515,#516);
#439=AXIS2_PLACEMENT_3D('',#643,#518,#519);
#440=AXIS2_PLACEMENT_3D('',#647,#521,#522);
#441=AXIS2_PLACEMENT_3D('',#651,#524,#525);
#442=AXIS2_PLACEMENT_3D('',#652,#526,#527);
#443=AXIS2_PLACEMENT_3D('',#653,#528,#529);
#444=AXIS2_PLACEMENT_3D('',#656,#532,#533);
#445=AXIS2_PLACEMENT_3D('',#659,#536,#537);
#446=AXIS2_PLACEMENT_3D('',#660,#538,#539);
#447=AXIS2_PLACEMENT_3D('',#663,#542,#543);
#448=AXIS2_PLACEMENT_3D('',#666,#546,#547);
#449=AXIS2_PLACEMENT_3D('',#667,#548,#549);
#450=AXIS2_PLACEMENT_3D('',#668,#550,#551);
#451=AXIS2_PLACEMENT_3D('',#669,#552,#553);
#452=AXIS2_PLACEMENT_3D('',#670,#554,#555);
#453=AXIS2_PLACEMENT_3D('',#671,#556,#557);
#454=AXIS2_PLACEMENT_3D('',#672,#558,#559);
#455=AXIS2_PLACEMENT_3D('',#673,#560,#561);
#456=AXIS2_PLACEMENT_3D('',#674,#562,#563);
#457=AXIS2_PLACEMENT_3D('',#676,#564,#565);
#458=AXIS2_PLACEMENT_3D('',#678,#566,#567);
#459=AXIS2_PLACEMENT_3D('',#679,#568,#569);
#460=AXIS2_PLACEMENT_3D('',#681,#570,#571);
#461=AXIS2_PLACEMENT_3D('',#682,#572,#573);
#462=AXIS2_PLACEMENT_3D('',#684,#574,#575);
#463=AXIS2_PLACEMENT_3D('',#685,#576,#577);
#464=AXIS2_PLACEMENT_3D('',#687,#578,#579);
#465=AXIS2_PLACEMENT_3D('',#689,#581,#582);
#466=AXIS2_PLACEMENT_3D('',#691,#583,#584);
#467=AXIS2_PLACEMENT_3D('',#692,#585,#586);
#468=AXIS2_PLACEMENT_3D('',#694,#587,#588);
#469=AXIS2_PLACEMENT_3D('',#695,#589,#590);
#470=AXIS2_PLACEMENT_3D('',#697,#591,#592);
#471=AXIS2_PLACEMENT_3D('',#698,#593,#594);
#472=DIRECTION('',(0.,0.,1.));
#473=DIRECTION('',(1.,0.,0.));
#474=DIRECTION('',(0.,0.,1.));
#475=DIRECTION('',(1.,0.,0.));
#476=DIRECTION('',(0.,0.,1.));
#477=DIRECTION('',(1.,0.,0.));
#478=DIRECTION('',(0.,0.,1.));
#479=DIRECTION('',(1.,0.,0.));
#480=DIRECTION('',(0.,0.,-1.));
#481=DIRECTION('',(0.,-1.,0.));
#482=DIRECTION('',(0.,0.,-1.));
#483=DIRECTION('',(0.,-1.,0.));
#484=DIRECTION('',(0.,0.,-1.));
#485=DIRECTION('',(0.,-1.,0.));
#486=DIRECTION('',(0.,0.,-1.));
#487=DIRECTION('',(0.,-1.,0.));
#488=DIRECTION('',(0.,0.,-1.));
#489=DIRECTION('',(0.,-1.,0.));
#490=DIRECTION('',(0.,0.,-1.));
#491=DIRECTION('',(0.,-1.,0.));
#492=DIRECTION('',(-1.,-3.15200860724474E-15,0.));
#493=DIRECTION('',(0.,0.,-1.));
#494=DIRECTION('',(0.,-1.,0.));
#495=DIRECTION('',(-0.965925826289068,-0.25881904510252,0.));
#496=DIRECTION('',(0.,0.,-1.));
#497=DIRECTION('',(0.,-1.,0.));
#498=DIRECTION('',(-0.965925826289068,-0.258819045102522,0.));
#499=DIRECTION('',(0.,0.,-1.));
#500=DIRECTION('',(0.,-1.,0.));
#501=DIRECTION('',(1.,0.,0.));
#502=DIRECTION('',(0.,0.,-1.));
#503=DIRECTION('',(0.,-1.,0.));
#504=DIRECTION('',(0.,0.,-1.));
#505=DIRECTION('',(0.,-1.,0.));
#506=DIRECTION('',(0.,0.,-1.));
#507=DIRECTION('',(0.,-1.,0.));
#508=DIRECTION('',(0.,0.,-1.));
#509=DIRECTION('',(0.,-1.,0.));
#510=DIRECTION('',(0.,0.,-1.));
#511=DIRECTION('',(0.,-1.,0.));
#512=DIRECTION('',(0.,0.,-1.));
#513=DIRECTION('',(0.,-1.,0.));
#514=DIRECTION('',(-1.,-3.15200860724474E-15,0.));
#515=DIRECTION('',(0.,0.,-1.));
#516=DIRECTION('',(0.,-1.,0.));
#517=DIRECTION('',(1.,0.,0.));
#518=DIRECTION('',(0.,0.,-1.));
#519=DIRECTION('',(0.,-1.,0.));
#520=DIRECTION('',(-0.965925826289068,-0.258819045102522,0.));
#521=DIRECTION('',(0.,0.,-1.));
#522=DIRECTION('',(0.,-1.,0.));
#523=DIRECTION('',(-0.965925826289068,-0.25881904510252,0.));
#524=DIRECTION('',(0.,0.,-1.));
#525=DIRECTION('',(0.,-1.,0.));
#526=DIRECTION('',(0.,0.,-1.));
#527=DIRECTION('',(0.,-1.,0.));
#528=DIRECTION('',(0.,0.,1.));
#529=DIRECTION('',(0.,1.,0.));
#530=DIRECTION('',(0.,0.,-1.));
#531=DIRECTION('',(0.,0.,-1.));
#532=DIRECTION('',(0.25881904510252,-0.965925826289068,0.));
#533=DIRECTION('',(-0.965925826289068,-0.25881904510252,0.));
#534=DIRECTION('',(0.,0.,-1.));
#535=DIRECTION('',(0.,0.,-1.));
#536=DIRECTION('',(0.258819045102522,-0.965925826289068,0.));
#537=DIRECTION('',(-0.965925826289068,-0.258819045102522,0.));
#538=DIRECTION('',(0.,0.,-1.));
#539=DIRECTION('',(0.,-1.,0.));
#540=DIRECTION('',(0.,0.,-1.));
#541=DIRECTION('',(0.,0.,-1.));
#542=DIRECTION('',(0.,1.,0.));
#543=DIRECTION('',(0.,0.,-1.));
#544=DIRECTION('',(0.,0.,-1.));
#545=DIRECTION('',(0.,0.,-1.));
#546=DIRECTION('',(3.15200860724474E-15,-1.,0.));
#547=DIRECTION('',(-1.,-3.15199255584986E-15,0.));
#548=DIRECTION('',(0.,0.,-1.));
#549=DIRECTION('',(0.,-1.,0.));
#550=DIRECTION('',(0.,0.,-1.));
#551=DIRECTION('',(0.,-1.,0.));
#552=DIRECTION('',(0.,0.,-1.));
#553=DIRECTION('',(0.,-1.,0.));
#554=DIRECTION('',(0.,0.,-1.));
#555=DIRECTION('',(0.,-1.,0.));
#556=DIRECTION('',(0.,0.,-1.));
#557=DIRECTION('',(0.,-1.,0.));
#558=DIRECTION('',(0.,0.,-1.));
#559=DIRECTION('',(0.,-1.,0.));
#560=DIRECTION('',(0.,0.,-1.));
#561=DIRECTION('',(0.,-1.,0.));
#562=DIRECTION('',(0.,0.,-1.));
#563=DIRECTION('',(0.,1.,0.));
#564=DIRECTION('',(0.,0.,-1.));
#565=DIRECTION('',(0.,1.,0.));
#566=DIRECTION('',(0.,0.,1.));
#567=DIRECTION('',(0.,1.,0.));
#568=DIRECTION('',(0.,0.,-1.));
#569=DIRECTION('',(0.,-1.,0.));
#570=DIRECTION('',(0.,0.,-1.));
#571=DIRECTION('',(0.,-1.,0.));
#572=DIRECTION('',(0.,0.,-1.));
#573=DIRECTION('',(0.,-1.,0.));
#574=DIRECTION('',(0.,0.,1.));
#575=DIRECTION('',(0.,1.,3.25312576022046E-17));
#576=DIRECTION('',(0.,0.,-1.));
#577=DIRECTION('',(0.,-1.,0.));
#578=DIRECTION('',(-0.974927912181824,0.222520933956311,0.));
#579=DIRECTION('',(-0.222520933956311,-0.974927912181824,0.));
#580=DIRECTION('',(0.,0.,-1.));
#581=DIRECTION('',(0.,0.,-1.));
#582=DIRECTION('',(0.,-1.,0.));
#583=DIRECTION('',(0.,0.,-1.));
#584=DIRECTION('',(0.,-1.,-8.47888060333765E-17));
#585=DIRECTION('',(0.,0.,-1.));
#586=DIRECTION('',(0.,-1.,0.));
#587=DIRECTION('',(0.,0.,-1.));
#588=DIRECTION('',(0.,-1.,0.));
#589=DIRECTION('',(0.,0.,-1.));
#590=DIRECTION('',(0.,-1.,0.));
#591=DIRECTION('',(0.,0.,-1.));
#592=DIRECTION('',(0.,-1.,0.));
#593=DIRECTION('',(0.,0.,-1.));
#594=DIRECTION('',(0.,-1.,0.));
#595=CARTESIAN_POINT('',(0.,0.,0.));
#596=CARTESIAN_POINT('',(0.,0.,0.));
#597=CARTESIAN_POINT('',(0.,0.,0.));
#598=CARTESIAN_POINT('',(-4.44089209850063E-16,0.,-2.745));
#599=CARTESIAN_POINT('',(22.2738636073762,22.2738636073762,-2.4));
#600=CARTESIAN_POINT('',(22.2738636073762,16.7738636073762,-2.4));
#601=CARTESIAN_POINT('',(-22.2738636073762,22.2738636073762,-2.4));
#602=CARTESIAN_POINT('',(-22.2738636073762,16.7738636073762,-2.4));
#603=CARTESIAN_POINT('',(-22.2738636073762,-22.2738636073762,-2.4));
#604=CARTESIAN_POINT('',(-22.2738636073762,-27.7738636073762,-2.4));
#605=CARTESIAN_POINT('',(22.2738636073762,-22.2738636073762,-2.4));
#606=CARTESIAN_POINT('',(22.2738636073762,-27.7738636073762,-2.4));
#607=CARTESIAN_POINT('',(-4.44089209850063E-16,0.,-2.4));
#608=CARTESIAN_POINT('',(-99.4,-6.08649459176235E-15,-2.4));
#609=CARTESIAN_POINT('',(22.396,0.,-2.4));
#610=CARTESIAN_POINT('',(22.396,4.99999999999999,-2.4));
#611=CARTESIAN_POINT('',(22.396,-4.99999999999999,-2.4));
#612=CARTESIAN_POINT('',(-1.62041322460735E-14,4.99999999999992,-2.4));
#613=CARTESIAN_POINT('',(19.3690478857377,4.99999999999998,-2.4));
#614=CARTESIAN_POINT('',(0.,0.,-2.4));
#615=CARTESIAN_POINT('',(-20.0031588089763,-0.183449346886294,-2.4));
#616=CARTESIAN_POINT('',(-1.29409522551259,4.82962913144532,-2.4));
#617=CARTESIAN_POINT('',(-22.9269700310826,-0.966882202670714,-2.4));
#618=CARTESIAN_POINT('',(-21.63287480557,-5.79651133411604,-2.4));
#619=CARTESIAN_POINT('',(-20.3387795800574,-10.6261404655614,-2.4));
#620=CARTESIAN_POINT('',(1.2940952255126,-4.82962913144531,-2.4));
#621=CARTESIAN_POINT('',(-17.4149683579511,-9.84270760977696,-2.4));
#622=CARTESIAN_POINT('',(0.,0.,-2.4));
#623=CARTESIAN_POINT('',(19.3690478857377,-4.99999999999998,-2.4));
#624=CARTESIAN_POINT('',(-4.44089209850063E-16,-4.99999999999999,-2.4));
#625=CARTESIAN_POINT('',(-4.44089209850063E-16,0.,-2.4));
#626=CARTESIAN_POINT('',(22.2738636073762,22.2738636073762,0.));
#627=CARTESIAN_POINT('',(22.2738636073762,16.7738636073762,0.));
#628=CARTESIAN_POINT('',(-22.2738636073762,22.2738636073762,0.));
#629=CARTESIAN_POINT('',(-22.2738636073762,16.7738636073762,0.));
#630=CARTESIAN_POINT('',(-22.2738636073762,-22.2738636073762,0.));
#631=CARTESIAN_POINT('',(-22.2738636073762,-27.7738636073762,0.));
#632=CARTESIAN_POINT('',(22.2738636073762,-22.2738636073762,0.));
#633=CARTESIAN_POINT('',(22.2738636073762,-27.7738636073762,0.));
#634=CARTESIAN_POINT('',(-4.44089209850063E-16,0.,0.));
#635=CARTESIAN_POINT('',(-99.4,-6.08649459176235E-15,0.));
#636=CARTESIAN_POINT('',(-1.62041322460735E-14,4.99999999999992,0.));
#637=CARTESIAN_POINT('',(22.396,4.99999999999999,0.));
#638=CARTESIAN_POINT('',(19.3690478857377,4.99999999999998,0.));
#639=CARTESIAN_POINT('',(22.396,0.,0.));
#640=CARTESIAN_POINT('',(22.396,-4.99999999999999,0.));
#641=CARTESIAN_POINT('',(-4.44089209850063E-16,-4.99999999999999,0.));
#642=CARTESIAN_POINT('',(19.3690478857377,-4.99999999999998,0.));
#643=CARTESIAN_POINT('',(0.,0.,0.));
#644=CARTESIAN_POINT('',(-17.4149683579511,-9.84270760977696,0.));
#645=CARTESIAN_POINT('',(1.2940952255126,-4.82962913144531,0.));
#646=CARTESIAN_POINT('',(-20.3387795800574,-10.6261404655614,0.));
#647=CARTESIAN_POINT('',(-21.63287480557,-5.79651133411604,0.));
#648=CARTESIAN_POINT('',(-22.9269700310826,-0.966882202670714,0.));
#649=CARTESIAN_POINT('',(-1.29409522551259,4.82962913144532,0.));
#650=CARTESIAN_POINT('',(-20.0031588089763,-0.183449346886294,0.));
#651=CARTESIAN_POINT('',(0.,0.,0.));
#652=CARTESIAN_POINT('',(-4.44089209850063E-16,0.,0.));
#653=CARTESIAN_POINT('',(-4.44089209850063E-16,0.,-2.9));
#654=CARTESIAN_POINT('',(-20.0031588089763,-0.183449346886294,2.3));
#655=CARTESIAN_POINT('',(-22.9269700310826,-0.966882202670714,2.3));
#656=CARTESIAN_POINT('',(-20.0031588089763,-0.183449346886296,2.3));
#657=CARTESIAN_POINT('',(-20.3387795800574,-10.6261404655614,2.3));
#658=CARTESIAN_POINT('',(-17.4149683579511,-9.84270760977696,2.3));
#659=CARTESIAN_POINT('',(-17.4149683579511,-9.84270760977696,2.3));
#660=CARTESIAN_POINT('',(-21.63287480557,-5.79651133411604,2.3));
#661=CARTESIAN_POINT('',(19.3690478857377,-4.99999999999998,2.3));
#662=CARTESIAN_POINT('',(22.396,-4.99999999999999,2.3));
#663=CARTESIAN_POINT('',(19.3690478857377,-4.99999999999999,2.3));
#664=CARTESIAN_POINT('',(22.396,4.99999999999999,2.3));
#665=CARTESIAN_POINT('',(19.3690478857377,4.99999999999998,2.3));
#666=CARTESIAN_POINT('',(22.396,4.99999999999999,2.3));
#667=CARTESIAN_POINT('',(22.396,0.,2.3));
#668=CARTESIAN_POINT('',(0.,0.,2.3));
#669=CARTESIAN_POINT('',(0.,0.,2.3));
#670=CARTESIAN_POINT('',(22.2738636073762,-22.2738636073762,2.3));
#671=CARTESIAN_POINT('',(-22.2738636073762,-22.2738636073762,2.3));
#672=CARTESIAN_POINT('',(-22.2738636073762,22.2738636073762,2.3));
#673=CARTESIAN_POINT('',(22.2738636073762,22.2738636073762,2.3));
#674=CARTESIAN_POINT('',(-4.44089209850063E-16,0.,-2.745));
#675=CARTESIAN_POINT('',(-4.44089209850063E-16,-98.6198265062913,-2.745));
#676=CARTESIAN_POINT('',(-4.44089209850063E-16,0.,-2.745));
#677=CARTESIAN_POINT('',(-4.44089209850063E-16,-100.,-2.745));
#678=CARTESIAN_POINT('',(-22.2520933956311,-97.4927912181824,-2.745));
#679=CARTESIAN_POINT('',(-4.44089209850063E-16,0.,-1.995));
#680=CARTESIAN_POINT('',(-4.44089209850063E-16,-98.6198265062913,-1.995));
#681=CARTESIAN_POINT('',(-4.44089209850063E-16,0.,0.5));
#682=CARTESIAN_POINT('',(-4.44089209850063E-16,0.,-1.4565151074942));
#683=CARTESIAN_POINT('',(-4.44089209850063E-16,-99.0835842049455,-1.4565151074942));
#684=CARTESIAN_POINT('',(-4.44089209850063E-16,0.,-1.995));
#685=CARTESIAN_POINT('',(-4.44089209850063E-16,0.,-0.94348489250576));
#686=CARTESIAN_POINT('',(-4.44089209850063E-16,-99.0835842049457,-0.94348489250576));
#687=CARTESIAN_POINT('',(-21.6770898628855,-94.9735361363802,-1.19999999999999));
#688=CARTESIAN_POINT('',(-4.44089209850063E-16,0.,0.5));
#689=CARTESIAN_POINT('',(-4.44089209850063E-16,0.,-0.404999999999974));
#690=CARTESIAN_POINT('',(-4.44089209850063E-16,-98.6198265062913,-0.404999999999974));
#691=CARTESIAN_POINT('',(-4.44089209850063E-16,0.,-0.94348489250576));
#692=CARTESIAN_POINT('',(-4.44089209850063E-16,0.,0.345000000000004));
#693=CARTESIAN_POINT('',(-4.44089209850063E-16,-98.6198265062913,0.345000000000004));
#694=CARTESIAN_POINT('',(-4.44089209850063E-16,0.,0.5));
#695=CARTESIAN_POINT('',(-4.44089209850063E-16,0.,0.345000000000004));
#696=CARTESIAN_POINT('',(-4.44089209850063E-16,-100.,0.345000000000004));
#697=CARTESIAN_POINT('',(-21.9449759007893,-96.1472215555123,0.345000000000004));
#698=CARTESIAN_POINT('',(-4.44089209850063E-16,0.,0.5));
#699=MECHANICAL_DESIGN_GEOMETRIC_PRESENTATION_REPRESENTATION('',(#400,#401,
#402,#403,#404),#700);
#700=(
GEOMETRIC_REPRESENTATION_CONTEXT(3)
GLOBAL_UNCERTAINTY_ASSIGNED_CONTEXT((#701))
GLOBAL_UNIT_ASSIGNED_CONTEXT((#707,#703,#702))
REPRESENTATION_CONTEXT('335.10-200-03','TOP_LEVEL_ASSEMBLY_PART')
);
#701=UNCERTAINTY_MEASURE_WITH_UNIT(LENGTH_MEASURE(2.E-5),#707,
'DISTANCE_ACCURACY_VALUE','Maximum Tolerance applied to model');
#702=(
NAMED_UNIT(*)
SI_UNIT($,.STERADIAN.)
SOLID_ANGLE_UNIT()
);
#703=(
CONVERSION_BASED_UNIT('DEGREE',#705)
NAMED_UNIT(#704)
PLANE_ANGLE_UNIT()
);
#704=DIMENSIONAL_EXPONENTS(0.,0.,0.,0.,0.,0.,0.);
#705=PLANE_ANGLE_MEASURE_WITH_UNIT(PLANE_ANGLE_MEASURE(0.0174532925),#706);
#706=(
NAMED_UNIT(*)
PLANE_ANGLE_UNIT()
SI_UNIT($,.RADIAN.)
);
#707=(
LENGTH_UNIT()
NAMED_UNIT(*)
SI_UNIT(.MILLI.,.METRE.)
);
ENDSEC;
END-ISO-10303-21;
