ISO-10303-21;
HEADER;
/* Generated by software containing ST-Developer
 * from STEP Tools, Inc. (www.steptools.com) 
 */
/* OPTION: using custom schema-name function */

FILE_DESCRIPTION(
/* description */ (''),
/* implementation_level */ '2;1');

FILE_NAME(
/* name */ '335.10-160-03.40-12.stp',
/* time_stamp */ '2017-09-14T10:21:08+06:00',
/* author */ (''),
/* organization */ (''),
/* preprocessor_version */ 'ST-DEVELOPER v16',
/* originating_system */ 'SIEMENS PLM Software NX 11.0',
/* authorisation */ '');

FILE_SCHEMA (('AUTOMOTIVE_DESIGN { 1 0 10303 214 3 1 1 1 }'));
ENDSEC;

DATA;
#10=CONSTRUCTIVE_GEOMETRY_REPRESENTATION_RELATIONSHIP(
'supplemental geometry','',#24,#11);
#11=CONSTRUCTIVE_GEOMETRY_REPRESENTATION('supplemental geometry',(#426,
#427,#428),#706);
#12=SHAPE_REPRESENTATION_RELATIONSHIP('None',
'relationship between 335.10-160-03.40-12-None and 335.10-160-03.40-12
-None',#24,#13);
#13=ADVANCED_BREP_SHAPE_REPRESENTATION('335.10-160-03.40-12-None',(#42,
#43),#706);
#14=SHAPE_DEFINITION_REPRESENTATION(#15,#24);
#15=PRODUCT_DEFINITION_SHAPE('','',#16);
#16=PRODUCT_DEFINITION(' ','',#18,#17);
#17=PRODUCT_DEFINITION_CONTEXT('part definition',#23,'design');
#18=PRODUCT_DEFINITION_FORMATION_WITH_SPECIFIED_SOURCE(' ',' ',#20,
 .NOT_KNOWN.);
#19=PRODUCT_RELATED_PRODUCT_CATEGORY('part','',(#20));
#20=PRODUCT('335.10-160-03.40-12','335.10-160-03.40-12',' ',(#21));
#21=PRODUCT_CONTEXT(' ',#23,'mechanical');
#22=APPLICATION_PROTOCOL_DEFINITION('international standard',
'automotive_design',2010,#23);
#23=APPLICATION_CONTEXT(
'core data for automotive mechanical design processes');
#24=SHAPE_REPRESENTATION('335.10-160-03.40-12-None',(#425),#706);
#25=(
BOUNDED_CURVE()
B_SPLINE_CURVE(3,(#700,#701,#702,#703),.UNSPECIFIED.,.F.,.F.)
B_SPLINE_CURVE_WITH_KNOTS((4,4),(0.,1.),.UNSPECIFIED.)
CURVE()
GEOMETRIC_REPRESENTATION_ITEM()
RATIONAL_B_SPLINE_CURVE((1.,0.95979508052394,0.95979508052394,1.))
REPRESENTATION_ITEM('')
);
#26=SURFACE_OF_REVOLUTION('',#383,#29);
#27=SURFACE_OF_REVOLUTION('',#384,#30);
#28=SURFACE_OF_REVOLUTION('',#25,#31);
#29=AXIS1_PLACEMENT('',#693,#586);
#30=AXIS1_PLACEMENT('',#699,#594);
#31=AXIS1_PLACEMENT('',#704,#595);
#32=SURFACE_STYLE_USAGE(.BOTH.,#34);
#33=SURFACE_STYLE_USAGE(.BOTH.,#35);
#34=SURFACE_SIDE_STYLE('',(#36));
#35=SURFACE_SIDE_STYLE('',(#37));
#36=SURFACE_STYLE_FILL_AREA(#38);
#37=SURFACE_STYLE_FILL_AREA(#39);
#38=FILL_AREA_STYLE('',(#40));
#39=FILL_AREA_STYLE('',(#41));
#40=FILL_AREA_STYLE_COLOUR('',#420);
#41=FILL_AREA_STYLE_COLOUR('',#421);
#42=MANIFOLD_SOLID_BREP('NOCUT',#44);
#43=MANIFOLD_SOLID_BREP('CUT',#45);
#44=CLOSED_SHELL('',(#122,#123,#124,#125,#126,#127,#128,#129,#130,#131,
#132,#133,#134,#135,#136));
#45=CLOSED_SHELL('',(#137,#138,#139,#140,#141,#142,#143,#144));
#46=FACE_BOUND('',#169,.T.);
#47=FACE_BOUND('',#170,.T.);
#48=FACE_BOUND('',#171,.T.);
#49=FACE_BOUND('',#172,.T.);
#50=FACE_BOUND('',#173,.T.);
#51=FACE_BOUND('',#174,.T.);
#52=FACE_BOUND('',#175,.T.);
#53=FACE_BOUND('',#176,.T.);
#54=FACE_BOUND('',#177,.T.);
#55=FACE_BOUND('',#178,.T.);
#56=FACE_BOUND('',#179,.T.);
#57=FACE_BOUND('',#180,.T.);
#58=FACE_BOUND('',#181,.T.);
#59=FACE_BOUND('',#182,.T.);
#60=FACE_BOUND('',#183,.T.);
#61=FACE_BOUND('',#184,.T.);
#62=FACE_BOUND('',#185,.T.);
#63=FACE_BOUND('',#186,.T.);
#64=FACE_BOUND('',#187,.T.);
#65=FACE_BOUND('',#188,.T.);
#66=FACE_BOUND('',#189,.T.);
#67=FACE_BOUND('',#190,.T.);
#68=FACE_BOUND('',#191,.T.);
#69=FACE_BOUND('',#192,.T.);
#70=FACE_BOUND('',#193,.T.);
#71=FACE_BOUND('',#194,.T.);
#72=FACE_BOUND('',#195,.T.);
#73=FACE_BOUND('',#196,.T.);
#74=FACE_BOUND('',#197,.T.);
#75=FACE_BOUND('',#198,.T.);
#76=FACE_BOUND('',#199,.T.);
#77=FACE_BOUND('',#200,.T.);
#78=FACE_BOUND('',#201,.T.);
#79=FACE_BOUND('',#202,.T.);
#80=FACE_BOUND('',#203,.T.);
#81=FACE_BOUND('',#204,.T.);
#82=FACE_BOUND('',#205,.T.);
#83=FACE_BOUND('',#206,.T.);
#84=CYLINDRICAL_SURFACE('',#432,20.004);
#85=CYLINDRICAL_SURFACE('',#436,5.);
#86=CYLINDRICAL_SURFACE('',#440,20.004);
#87=CYLINDRICAL_SURFACE('',#444,4.99999999999999);
#88=CYLINDRICAL_SURFACE('',#447,5.5);
#89=CYLINDRICAL_SURFACE('',#450,5.5);
#90=CYLINDRICAL_SURFACE('',#453,5.5);
#91=CYLINDRICAL_SURFACE('',#456,5.5);
#92=CYLINDRICAL_SURFACE('',#459,79.4);
#93=CYLINDRICAL_SURFACE('',#464,70.6553190689159);
#94=CYLINDRICAL_SURFACE('',#467,80.);
#95=CYLINDRICAL_SURFACE('',#470,70.6553190689159);
#96=CIRCLE('',#430,20.004);
#97=CIRCLE('',#431,20.004);
#98=CIRCLE('',#434,5.);
#99=CIRCLE('',#435,5.);
#100=CIRCLE('',#438,20.004);
#101=CIRCLE('',#439,20.004);
#102=CIRCLE('',#442,4.99999999999999);
#103=CIRCLE('',#443,4.99999999999999);
#104=CIRCLE('',#445,5.5);
#105=CIRCLE('',#446,5.5);
#106=CIRCLE('',#448,5.5);
#107=CIRCLE('',#449,5.5);
#108=CIRCLE('',#451,5.5);
#109=CIRCLE('',#452,5.5);
#110=CIRCLE('',#454,5.5);
#111=CIRCLE('',#455,5.5);
#112=CIRCLE('',#457,79.4);
#113=CIRCLE('',#458,79.4);
#114=CIRCLE('',#462,70.6553190689159);
#115=CIRCLE('',#463,70.6553190689159);
#116=CIRCLE('',#465,80.);
#117=CIRCLE('',#466,80.);
#118=CIRCLE('',#468,70.6553190689159);
#119=CIRCLE('',#469,70.6553190689159);
#120=CIRCLE('',#471,70.6382715412509);
#121=CIRCLE('',#474,70.6382715412509);
#122=ADVANCED_FACE('',(#153),#145,.T.);
#123=ADVANCED_FACE('',(#154),#84,.F.);
#124=ADVANCED_FACE('',(#155),#146,.T.);
#125=ADVANCED_FACE('',(#156),#85,.F.);
#126=ADVANCED_FACE('',(#157),#147,.F.);
#127=ADVANCED_FACE('',(#158),#86,.F.);
#128=ADVANCED_FACE('',(#159),#148,.T.);
#129=ADVANCED_FACE('',(#160),#87,.F.);
#130=ADVANCED_FACE('',(#46,#47),#88,.F.);
#131=ADVANCED_FACE('',(#48,#49),#89,.F.);
#132=ADVANCED_FACE('',(#50,#51),#90,.F.);
#133=ADVANCED_FACE('',(#52,#53),#91,.F.);
#134=ADVANCED_FACE('',(#54,#55),#92,.T.);
#135=ADVANCED_FACE('',(#56,#57,#58,#59,#60,#61),#149,.T.);
#136=ADVANCED_FACE('',(#62,#63,#64,#65,#66,#67),#150,.F.);
#137=ADVANCED_FACE('',(#68,#69),#93,.F.);
#138=ADVANCED_FACE('',(#70,#71),#94,.T.);
#139=ADVANCED_FACE('',(#72,#73),#95,.F.);
#140=ADVANCED_FACE('',(#74,#75),#26,.F.);
#141=ADVANCED_FACE('',(#76,#77),#151,.F.);
#142=ADVANCED_FACE('',(#78,#79),#152,.F.);
#143=ADVANCED_FACE('',(#80,#81),#27,.F.);
#144=ADVANCED_FACE('',(#82,#83),#28,.F.);
#145=PLANE('',#429);
#146=PLANE('',#433);
#147=PLANE('',#437);
#148=PLANE('',#441);
#149=PLANE('',#460);
#150=PLANE('',#461);
#151=PLANE('',#472);
#152=PLANE('',#473);
#153=FACE_OUTER_BOUND('',#161,.T.);
#154=FACE_OUTER_BOUND('',#162,.T.);
#155=FACE_OUTER_BOUND('',#163,.T.);
#156=FACE_OUTER_BOUND('',#164,.T.);
#157=FACE_OUTER_BOUND('',#165,.T.);
#158=FACE_OUTER_BOUND('',#166,.T.);
#159=FACE_OUTER_BOUND('',#167,.T.);
#160=FACE_OUTER_BOUND('',#168,.T.);
#161=EDGE_LOOP('',(#207,#208,#209,#210));
#162=EDGE_LOOP('',(#211,#212,#213,#214));
#163=EDGE_LOOP('',(#215,#216,#217,#218));
#164=EDGE_LOOP('',(#219,#220,#221,#222));
#165=EDGE_LOOP('',(#223,#224,#225,#226));
#166=EDGE_LOOP('',(#227,#228,#229,#230));
#167=EDGE_LOOP('',(#231,#232,#233,#234));
#168=EDGE_LOOP('',(#235,#236,#237,#238));
#169=EDGE_LOOP('',(#239));
#170=EDGE_LOOP('',(#240));
#171=EDGE_LOOP('',(#241));
#172=EDGE_LOOP('',(#242));
#173=EDGE_LOOP('',(#243));
#174=EDGE_LOOP('',(#244));
#175=EDGE_LOOP('',(#245));
#176=EDGE_LOOP('',(#246));
#177=EDGE_LOOP('',(#247));
#178=EDGE_LOOP('',(#248));
#179=EDGE_LOOP('',(#249));
#180=EDGE_LOOP('',(#250));
#181=EDGE_LOOP('',(#251));
#182=EDGE_LOOP('',(#252));
#183=EDGE_LOOP('',(#253));
#184=EDGE_LOOP('',(#254,#255,#256,#257,#258,#259,#260,#261));
#185=EDGE_LOOP('',(#262));
#186=EDGE_LOOP('',(#263));
#187=EDGE_LOOP('',(#264));
#188=EDGE_LOOP('',(#265));
#189=EDGE_LOOP('',(#266));
#190=EDGE_LOOP('',(#267,#268,#269,#270,#271,#272,#273,#274));
#191=EDGE_LOOP('',(#275));
#192=EDGE_LOOP('',(#276));
#193=EDGE_LOOP('',(#277));
#194=EDGE_LOOP('',(#278));
#195=EDGE_LOOP('',(#279));
#196=EDGE_LOOP('',(#280));
#197=EDGE_LOOP('',(#281));
#198=EDGE_LOOP('',(#282));
#199=EDGE_LOOP('',(#283));
#200=EDGE_LOOP('',(#284));
#201=EDGE_LOOP('',(#285));
#202=EDGE_LOOP('',(#286));
#203=EDGE_LOOP('',(#287));
#204=EDGE_LOOP('',(#288));
#205=EDGE_LOOP('',(#289));
#206=EDGE_LOOP('',(#290));
#207=ORIENTED_EDGE('',*,*,#325,.F.);
#208=ORIENTED_EDGE('',*,*,#326,.F.);
#209=ORIENTED_EDGE('',*,*,#327,.T.);
#210=ORIENTED_EDGE('',*,*,#328,.T.);
#211=ORIENTED_EDGE('',*,*,#329,.T.);
#212=ORIENTED_EDGE('',*,*,#330,.T.);
#213=ORIENTED_EDGE('',*,*,#328,.F.);
#214=ORIENTED_EDGE('',*,*,#331,.F.);
#215=ORIENTED_EDGE('',*,*,#332,.F.);
#216=ORIENTED_EDGE('',*,*,#329,.F.);
#217=ORIENTED_EDGE('',*,*,#333,.T.);
#218=ORIENTED_EDGE('',*,*,#334,.T.);
#219=ORIENTED_EDGE('',*,*,#335,.T.);
#220=ORIENTED_EDGE('',*,*,#336,.T.);
#221=ORIENTED_EDGE('',*,*,#334,.F.);
#222=ORIENTED_EDGE('',*,*,#337,.F.);
#223=ORIENTED_EDGE('',*,*,#338,.T.);
#224=ORIENTED_EDGE('',*,*,#339,.T.);
#225=ORIENTED_EDGE('',*,*,#335,.F.);
#226=ORIENTED_EDGE('',*,*,#340,.F.);
#227=ORIENTED_EDGE('',*,*,#341,.T.);
#228=ORIENTED_EDGE('',*,*,#342,.T.);
#229=ORIENTED_EDGE('',*,*,#338,.F.);
#230=ORIENTED_EDGE('',*,*,#343,.F.);
#231=ORIENTED_EDGE('',*,*,#344,.F.);
#232=ORIENTED_EDGE('',*,*,#341,.F.);
#233=ORIENTED_EDGE('',*,*,#345,.T.);
#234=ORIENTED_EDGE('',*,*,#346,.T.);
#235=ORIENTED_EDGE('',*,*,#326,.T.);
#236=ORIENTED_EDGE('',*,*,#347,.T.);
#237=ORIENTED_EDGE('',*,*,#346,.F.);
#238=ORIENTED_EDGE('',*,*,#348,.F.);
#239=ORIENTED_EDGE('',*,*,#349,.F.);
#240=ORIENTED_EDGE('',*,*,#350,.T.);
#241=ORIENTED_EDGE('',*,*,#351,.F.);
#242=ORIENTED_EDGE('',*,*,#352,.T.);
#243=ORIENTED_EDGE('',*,*,#353,.F.);
#244=ORIENTED_EDGE('',*,*,#354,.T.);
#245=ORIENTED_EDGE('',*,*,#355,.F.);
#246=ORIENTED_EDGE('',*,*,#356,.T.);
#247=ORIENTED_EDGE('',*,*,#357,.F.);
#248=ORIENTED_EDGE('',*,*,#358,.T.);
#249=ORIENTED_EDGE('',*,*,#356,.F.);
#250=ORIENTED_EDGE('',*,*,#354,.F.);
#251=ORIENTED_EDGE('',*,*,#352,.F.);
#252=ORIENTED_EDGE('',*,*,#350,.F.);
#253=ORIENTED_EDGE('',*,*,#357,.T.);
#254=ORIENTED_EDGE('',*,*,#347,.F.);
#255=ORIENTED_EDGE('',*,*,#325,.T.);
#256=ORIENTED_EDGE('',*,*,#330,.F.);
#257=ORIENTED_EDGE('',*,*,#332,.T.);
#258=ORIENTED_EDGE('',*,*,#336,.F.);
#259=ORIENTED_EDGE('',*,*,#339,.F.);
#260=ORIENTED_EDGE('',*,*,#342,.F.);
#261=ORIENTED_EDGE('',*,*,#344,.T.);
#262=ORIENTED_EDGE('',*,*,#355,.T.);
#263=ORIENTED_EDGE('',*,*,#353,.T.);
#264=ORIENTED_EDGE('',*,*,#351,.T.);
#265=ORIENTED_EDGE('',*,*,#349,.T.);
#266=ORIENTED_EDGE('',*,*,#358,.F.);
#267=ORIENTED_EDGE('',*,*,#327,.F.);
#268=ORIENTED_EDGE('',*,*,#348,.T.);
#269=ORIENTED_EDGE('',*,*,#345,.F.);
#270=ORIENTED_EDGE('',*,*,#343,.T.);
#271=ORIENTED_EDGE('',*,*,#340,.T.);
#272=ORIENTED_EDGE('',*,*,#337,.T.);
#273=ORIENTED_EDGE('',*,*,#333,.F.);
#274=ORIENTED_EDGE('',*,*,#331,.T.);
#275=ORIENTED_EDGE('',*,*,#359,.T.);
#276=ORIENTED_EDGE('',*,*,#360,.F.);
#277=ORIENTED_EDGE('',*,*,#361,.F.);
#278=ORIENTED_EDGE('',*,*,#362,.T.);
#279=ORIENTED_EDGE('',*,*,#363,.F.);
#280=ORIENTED_EDGE('',*,*,#364,.T.);
#281=ORIENTED_EDGE('',*,*,#363,.T.);
#282=ORIENTED_EDGE('',*,*,#365,.F.);
#283=ORIENTED_EDGE('',*,*,#364,.F.);
#284=ORIENTED_EDGE('',*,*,#361,.T.);
#285=ORIENTED_EDGE('',*,*,#362,.F.);
#286=ORIENTED_EDGE('',*,*,#360,.T.);
#287=ORIENTED_EDGE('',*,*,#366,.T.);
#288=ORIENTED_EDGE('',*,*,#359,.F.);
#289=ORIENTED_EDGE('',*,*,#365,.T.);
#290=ORIENTED_EDGE('',*,*,#366,.F.);
#291=VERTEX_POINT('',#601);
#292=VERTEX_POINT('',#602);
#293=VERTEX_POINT('',#604);
#294=VERTEX_POINT('',#606);
#295=VERTEX_POINT('',#610);
#296=VERTEX_POINT('',#611);
#297=VERTEX_POINT('',#616);
#298=VERTEX_POINT('',#618);
#299=VERTEX_POINT('',#622);
#300=VERTEX_POINT('',#623);
#301=VERTEX_POINT('',#628);
#302=VERTEX_POINT('',#629);
#303=VERTEX_POINT('',#634);
#304=VERTEX_POINT('',#635);
#305=VERTEX_POINT('',#640);
#306=VERTEX_POINT('',#642);
#307=VERTEX_POINT('',#649);
#308=VERTEX_POINT('',#651);
#309=VERTEX_POINT('',#654);
#310=VERTEX_POINT('',#656);
#311=VERTEX_POINT('',#659);
#312=VERTEX_POINT('',#661);
#313=VERTEX_POINT('',#664);
#314=VERTEX_POINT('',#666);
#315=VERTEX_POINT('',#669);
#316=VERTEX_POINT('',#671);
#317=VERTEX_POINT('',#676);
#318=VERTEX_POINT('',#678);
#319=VERTEX_POINT('',#681);
#320=VERTEX_POINT('',#683);
#321=VERTEX_POINT('',#686);
#322=VERTEX_POINT('',#688);
#323=VERTEX_POINT('',#691);
#324=VERTEX_POINT('',#697);
#325=EDGE_CURVE('',#291,#292,#367,.T.);
#326=EDGE_CURVE('',#293,#291,#368,.T.);
#327=EDGE_CURVE('',#293,#294,#369,.T.);
#328=EDGE_CURVE('',#294,#292,#370,.T.);
#329=EDGE_CURVE('',#295,#296,#371,.T.);
#330=EDGE_CURVE('',#296,#292,#96,.T.);
#331=EDGE_CURVE('',#295,#294,#97,.T.);
#332=EDGE_CURVE('',#296,#297,#372,.T.);
#333=EDGE_CURVE('',#295,#298,#373,.T.);
#334=EDGE_CURVE('',#298,#297,#374,.T.);
#335=EDGE_CURVE('',#299,#300,#375,.T.);
#336=EDGE_CURVE('',#300,#297,#98,.T.);
#337=EDGE_CURVE('',#299,#298,#99,.T.);
#338=EDGE_CURVE('',#301,#302,#376,.T.);
#339=EDGE_CURVE('',#302,#300,#377,.T.);
#340=EDGE_CURVE('',#301,#299,#378,.T.);
#341=EDGE_CURVE('',#303,#304,#379,.T.);
#342=EDGE_CURVE('',#304,#302,#100,.T.);
#343=EDGE_CURVE('',#303,#301,#101,.T.);
#344=EDGE_CURVE('',#304,#305,#380,.T.);
#345=EDGE_CURVE('',#303,#306,#381,.T.);
#346=EDGE_CURVE('',#306,#305,#382,.T.);
#347=EDGE_CURVE('',#291,#305,#102,.T.);
#348=EDGE_CURVE('',#293,#306,#103,.T.);
#349=EDGE_CURVE('',#307,#307,#104,.T.);
#350=EDGE_CURVE('',#308,#308,#105,.T.);
#351=EDGE_CURVE('',#309,#309,#106,.T.);
#352=EDGE_CURVE('',#310,#310,#107,.T.);
#353=EDGE_CURVE('',#311,#311,#108,.T.);
#354=EDGE_CURVE('',#312,#312,#109,.T.);
#355=EDGE_CURVE('',#313,#313,#110,.T.);
#356=EDGE_CURVE('',#314,#314,#111,.T.);
#357=EDGE_CURVE('',#315,#315,#112,.T.);
#358=EDGE_CURVE('',#316,#316,#113,.T.);
#359=EDGE_CURVE('',#317,#317,#114,.T.);
#360=EDGE_CURVE('',#318,#318,#115,.T.);
#361=EDGE_CURVE('',#319,#319,#116,.T.);
#362=EDGE_CURVE('',#320,#320,#117,.T.);
#363=EDGE_CURVE('',#321,#321,#118,.T.);
#364=EDGE_CURVE('',#322,#322,#119,.T.);
#365=EDGE_CURVE('',#323,#323,#120,.T.);
#366=EDGE_CURVE('',#324,#324,#121,.T.);
#367=LINE('',#600,#385);
#368=LINE('',#603,#386);
#369=LINE('',#605,#387);
#370=LINE('',#607,#388);
#371=LINE('',#609,#389);
#372=LINE('',#615,#390);
#373=LINE('',#617,#391);
#374=LINE('',#619,#392);
#375=LINE('',#621,#393);
#376=LINE('',#627,#394);
#377=LINE('',#630,#395);
#378=LINE('',#631,#396);
#379=LINE('',#633,#397);
#380=LINE('',#639,#398);
#381=LINE('',#641,#399);
#382=LINE('',#643,#400);
#383=LINE('',#692,#401);
#384=LINE('',#698,#402);
#385=VECTOR('',#483,1.);
#386=VECTOR('',#484,1.);
#387=VECTOR('',#485,1.);
#388=VECTOR('',#486,1.);
#389=VECTOR('',#489,1.);
#390=VECTOR('',#496,1.);
#391=VECTOR('',#497,1.);
#392=VECTOR('',#498,1.);
#393=VECTOR('',#501,1.);
#394=VECTOR('',#508,1.);
#395=VECTOR('',#509,1.);
#396=VECTOR('',#510,1.);
#397=VECTOR('',#513,1.);
#398=VECTOR('',#520,1.);
#399=VECTOR('',#521,1.);
#400=VECTOR('',#522,1.);
#401=VECTOR('',#585,0.939703600426245);
#402=VECTOR('',#593,1.80533157769862);
#403=PRESENTATION_LAYER_ASSIGNMENT('1','Layer 1',(#426,#427,#428));
#404=PRESENTATION_LAYER_ASSIGNMENT('2','Layer 2',(#42));
#405=PRESENTATION_LAYER_ASSIGNMENT('3','Layer 3',(#43));
#406=STYLED_ITEM('',(#411),#426);
#407=STYLED_ITEM('',(#412),#427);
#408=STYLED_ITEM('',(#413),#428);
#409=STYLED_ITEM('',(#414),#42);
#410=STYLED_ITEM('',(#415),#43);
#411=PRESENTATION_STYLE_ASSIGNMENT((#416));
#412=PRESENTATION_STYLE_ASSIGNMENT((#417));
#413=PRESENTATION_STYLE_ASSIGNMENT((#418));
#414=PRESENTATION_STYLE_ASSIGNMENT((#32));
#415=PRESENTATION_STYLE_ASSIGNMENT((#33));
#416=CURVE_STYLE('',#422,POSITIVE_LENGTH_MEASURE(0.18),#419);
#417=CURVE_STYLE('',#423,POSITIVE_LENGTH_MEASURE(0.18),#419);
#418=CURVE_STYLE('',#424,POSITIVE_LENGTH_MEASURE(0.18),#419);
#419=COLOUR_RGB('Medium Maroon',0.6,0.4,0.4);
#420=COLOUR_RGB('Medium Gray',0.490196078431373,0.490196078431373,0.490196078431373);
#421=COLOUR_RGB('Light Gray',0.8,0.8,0.8);
#422=DRAUGHTING_PRE_DEFINED_CURVE_FONT('continuous');
#423=DRAUGHTING_PRE_DEFINED_CURVE_FONT('continuous');
#424=DRAUGHTING_PRE_DEFINED_CURVE_FONT('continuous');
#425=AXIS2_PLACEMENT_3D('',#596,#475,#476);
#426=AXIS2_PLACEMENT_3D('PCS',#597,#477,#478);
#427=AXIS2_PLACEMENT_3D('MCS',#598,#479,#480);
#428=AXIS2_PLACEMENT_3D('CIP',#599,#481,#482);
#429=AXIS2_PLACEMENT_3D('',#608,#487,#488);
#430=AXIS2_PLACEMENT_3D('',#612,#490,#491);
#431=AXIS2_PLACEMENT_3D('',#613,#492,#493);
#432=AXIS2_PLACEMENT_3D('',#614,#494,#495);
#433=AXIS2_PLACEMENT_3D('',#620,#499,#500);
#434=AXIS2_PLACEMENT_3D('',#624,#502,#503);
#435=AXIS2_PLACEMENT_3D('',#625,#504,#505);
#436=AXIS2_PLACEMENT_3D('',#626,#506,#507);
#437=AXIS2_PLACEMENT_3D('',#632,#511,#512);
#438=AXIS2_PLACEMENT_3D('',#636,#514,#515);
#439=AXIS2_PLACEMENT_3D('',#637,#516,#517);
#440=AXIS2_PLACEMENT_3D('',#638,#518,#519);
#441=AXIS2_PLACEMENT_3D('',#644,#523,#524);
#442=AXIS2_PLACEMENT_3D('',#645,#525,#526);
#443=AXIS2_PLACEMENT_3D('',#646,#527,#528);
#444=AXIS2_PLACEMENT_3D('',#647,#529,#530);
#445=AXIS2_PLACEMENT_3D('',#648,#531,#532);
#446=AXIS2_PLACEMENT_3D('',#650,#533,#534);
#447=AXIS2_PLACEMENT_3D('',#652,#535,#536);
#448=AXIS2_PLACEMENT_3D('',#653,#537,#538);
#449=AXIS2_PLACEMENT_3D('',#655,#539,#540);
#450=AXIS2_PLACEMENT_3D('',#657,#541,#542);
#451=AXIS2_PLACEMENT_3D('',#658,#543,#544);
#452=AXIS2_PLACEMENT_3D('',#660,#545,#546);
#453=AXIS2_PLACEMENT_3D('',#662,#547,#548);
#454=AXIS2_PLACEMENT_3D('',#663,#549,#550);
#455=AXIS2_PLACEMENT_3D('',#665,#551,#552);
#456=AXIS2_PLACEMENT_3D('',#667,#553,#554);
#457=AXIS2_PLACEMENT_3D('',#668,#555,#556);
#458=AXIS2_PLACEMENT_3D('',#670,#557,#558);
#459=AXIS2_PLACEMENT_3D('',#672,#559,#560);
#460=AXIS2_PLACEMENT_3D('',#673,#561,#562);
#461=AXIS2_PLACEMENT_3D('',#674,#563,#564);
#462=AXIS2_PLACEMENT_3D('',#675,#565,#566);
#463=AXIS2_PLACEMENT_3D('',#677,#567,#568);
#464=AXIS2_PLACEMENT_3D('',#679,#569,#570);
#465=AXIS2_PLACEMENT_3D('',#680,#571,#572);
#466=AXIS2_PLACEMENT_3D('',#682,#573,#574);
#467=AXIS2_PLACEMENT_3D('',#684,#575,#576);
#468=AXIS2_PLACEMENT_3D('',#685,#577,#578);
#469=AXIS2_PLACEMENT_3D('',#687,#579,#580);
#470=AXIS2_PLACEMENT_3D('',#689,#581,#582);
#471=AXIS2_PLACEMENT_3D('',#690,#583,#584);
#472=AXIS2_PLACEMENT_3D('',#694,#587,#588);
#473=AXIS2_PLACEMENT_3D('',#695,#589,#590);
#474=AXIS2_PLACEMENT_3D('',#696,#591,#592);
#475=DIRECTION('',(0.,0.,1.));
#476=DIRECTION('',(1.,0.,0.));
#477=DIRECTION('',(0.,0.,1.));
#478=DIRECTION('',(1.,0.,0.));
#479=DIRECTION('',(0.,0.,1.));
#480=DIRECTION('',(1.,0.,0.));
#481=DIRECTION('',(0.,0.,1.));
#482=DIRECTION('',(1.,0.,0.));
#483=DIRECTION('',(-1.,-3.15200860724474E-15,0.));
#484=DIRECTION('',(0.,0.,-1.));
#485=DIRECTION('',(-1.,-3.15200860724474E-15,0.));
#486=DIRECTION('',(0.,0.,-1.));
#487=DIRECTION('',(3.15200860724474E-15,-1.,0.));
#488=DIRECTION('',(-1.,-3.15199255584986E-15,0.));
#489=DIRECTION('',(0.,0.,-1.));
#490=DIRECTION('',(0.,0.,-1.));
#491=DIRECTION('',(-1.,0.,0.));
#492=DIRECTION('',(0.,0.,-1.));
#493=DIRECTION('',(-1.,0.,0.));
#494=DIRECTION('',(0.,0.,-1.));
#495=DIRECTION('',(0.,-1.,0.));
#496=DIRECTION('',(-0.965925826289068,-0.25881904510252,0.));
#497=DIRECTION('',(-0.965925826289068,-0.25881904510252,0.));
#498=DIRECTION('',(0.,0.,-1.));
#499=DIRECTION('',(0.25881904510252,-0.965925826289068,0.));
#500=DIRECTION('',(-0.965925826289068,-0.25881904510252,0.));
#501=DIRECTION('',(0.,0.,-1.));
#502=DIRECTION('',(0.,0.,-1.));
#503=DIRECTION('',(-1.,0.,0.));
#504=DIRECTION('',(0.,0.,-1.));
#505=DIRECTION('',(-1.,0.,0.));
#506=DIRECTION('',(0.,0.,-1.));
#507=DIRECTION('',(0.,-1.,0.));
#508=DIRECTION('',(0.,0.,-1.));
#509=DIRECTION('',(-0.965925826289068,-0.258819045102522,0.));
#510=DIRECTION('',(-0.965925826289068,-0.258819045102522,0.));
#511=DIRECTION('',(0.258819045102522,-0.965925826289068,0.));
#512=DIRECTION('',(-0.965925826289068,-0.258819045102522,0.));
#513=DIRECTION('',(0.,0.,-1.));
#514=DIRECTION('',(0.,0.,-1.));
#515=DIRECTION('',(-1.,0.,0.));
#516=DIRECTION('',(0.,0.,-1.));
#517=DIRECTION('',(-1.,0.,0.));
#518=DIRECTION('',(0.,0.,-1.));
#519=DIRECTION('',(0.,-1.,0.));
#520=DIRECTION('',(1.,0.,0.));
#521=DIRECTION('',(1.,0.,0.));
#522=DIRECTION('',(0.,0.,-1.));
#523=DIRECTION('',(0.,1.,0.));
#524=DIRECTION('',(0.,0.,-1.));
#525=DIRECTION('',(0.,0.,-1.));
#526=DIRECTION('',(-1.,0.,0.));
#527=DIRECTION('',(0.,0.,-1.));
#528=DIRECTION('',(-1.,0.,0.));
#529=DIRECTION('',(0.,0.,-1.));
#530=DIRECTION('',(0.,-1.,0.));
#531=DIRECTION('',(0.,0.,-1.));
#532=DIRECTION('',(-1.,0.,0.));
#533=DIRECTION('',(0.,0.,-1.));
#534=DIRECTION('',(-1.,0.,0.));
#535=DIRECTION('',(0.,0.,-1.));
#536=DIRECTION('',(0.,-1.,0.));
#537=DIRECTION('',(0.,0.,-1.));
#538=DIRECTION('',(-1.,0.,0.));
#539=DIRECTION('',(0.,0.,-1.));
#540=DIRECTION('',(-1.,0.,0.));
#541=DIRECTION('',(0.,0.,-1.));
#542=DIRECTION('',(0.,-1.,0.));
#543=DIRECTION('',(0.,0.,-1.));
#544=DIRECTION('',(-1.,0.,0.));
#545=DIRECTION('',(0.,0.,-1.));
#546=DIRECTION('',(-1.,0.,0.));
#547=DIRECTION('',(0.,0.,-1.));
#548=DIRECTION('',(0.,-1.,0.));
#549=DIRECTION('',(0.,0.,-1.));
#550=DIRECTION('',(-1.,0.,0.));
#551=DIRECTION('',(0.,0.,-1.));
#552=DIRECTION('',(-1.,0.,0.));
#553=DIRECTION('',(0.,0.,-1.));
#554=DIRECTION('',(0.,-1.,0.));
#555=DIRECTION('',(0.,0.,-1.));
#556=DIRECTION('',(-1.,0.,0.));
#557=DIRECTION('',(0.,0.,-1.));
#558=DIRECTION('',(-1.,0.,0.));
#559=DIRECTION('',(0.,0.,1.));
#560=DIRECTION('',(0.,1.,0.));
#561=DIRECTION('',(0.,0.,-1.));
#562=DIRECTION('',(0.,-1.,0.));
#563=DIRECTION('',(0.,0.,-1.));
#564=DIRECTION('',(0.,-1.,0.));
#565=DIRECTION('',(0.,0.,-1.));
#566=DIRECTION('',(-1.,0.,0.));
#567=DIRECTION('',(0.,0.,-1.));
#568=DIRECTION('',(-1.,0.,0.));
#569=DIRECTION('',(0.,0.,-1.));
#570=DIRECTION('',(1.,0.,0.));
#571=DIRECTION('',(0.,0.,-1.));
#572=DIRECTION('',(1.,0.,0.));
#573=DIRECTION('',(0.,0.,-1.));
#574=DIRECTION('',(-1.,0.,0.));
#575=DIRECTION('',(0.,0.,-1.));
#576=DIRECTION('',(1.,0.,0.));
#577=DIRECTION('',(0.,0.,-1.));
#578=DIRECTION('',(-1.,0.,0.));
#579=DIRECTION('',(0.,0.,-1.));
#580=DIRECTION('',(1.,0.,0.));
#581=DIRECTION('',(0.,0.,-1.));
#582=DIRECTION('',(1.,0.,0.));
#583=DIRECTION('',(0.,0.,-1.));
#584=DIRECTION('',(-1.,0.,0.));
#585=DIRECTION('',(-0.399790238646126,-0.0420196472995864,-0.9156430059385));
#586=DIRECTION('',(0.,0.,-1.));
#587=DIRECTION('',(0.,0.,1.));
#588=DIRECTION('',(-1.,0.,0.));
#589=DIRECTION('',(0.,0.,-1.));
#590=DIRECTION('',(1.,0.,0.));
#591=DIRECTION('',(0.,0.,-1.));
#592=DIRECTION('',(-1.,0.,0.));
#593=DIRECTION('',(0.399790238646126,0.0420196472995864,-0.9156430059385));
#594=DIRECTION('',(0.,0.,-1.));
#595=DIRECTION('',(0.,0.,-1.));
#596=CARTESIAN_POINT('',(0.,0.,0.));
#597=CARTESIAN_POINT('',(0.,0.,0.));
#598=CARTESIAN_POINT('',(0.,0.,0.));
#599=CARTESIAN_POINT('',(0.,0.,-2.745));
#600=CARTESIAN_POINT('',(22.396,4.99999999999999,-2.4));
#601=CARTESIAN_POINT('',(22.396,4.99999999999999,-2.4));
#602=CARTESIAN_POINT('',(19.3690478857377,4.99999999999998,-2.4));
#603=CARTESIAN_POINT('',(22.396,4.99999999999999,2.3));
#604=CARTESIAN_POINT('',(22.396,4.99999999999999,-2.16840434497101E-16));
#605=CARTESIAN_POINT('',(-1.62041322460735E-14,4.99999999999992,-2.16840434497101E-16));
#606=CARTESIAN_POINT('',(19.3690478857377,4.99999999999998,-2.16840434497101E-16));
#607=CARTESIAN_POINT('',(19.3690478857377,4.99999999999998,2.3));
#608=CARTESIAN_POINT('',(22.396,4.99999999999999,2.3));
#609=CARTESIAN_POINT('',(-20.0031588089763,-0.183449346886294,2.3));
#610=CARTESIAN_POINT('',(-20.0031588089763,-0.183449346886294,-2.16840434497101E-16));
#611=CARTESIAN_POINT('',(-20.0031588089763,-0.183449346886294,-2.4));
#612=CARTESIAN_POINT('',(0.,0.,-2.4));
#613=CARTESIAN_POINT('',(0.,0.,0.));
#614=CARTESIAN_POINT('',(0.,0.,2.3));
#615=CARTESIAN_POINT('',(-1.29409522551259,4.82962913144532,-2.4));
#616=CARTESIAN_POINT('',(-22.9269700310826,-0.966882202670714,-2.4));
#617=CARTESIAN_POINT('',(-1.29409522551259,4.82962913144532,-2.16840434497101E-16));
#618=CARTESIAN_POINT('',(-22.9269700310826,-0.966882202670714,-2.16840434497101E-16));
#619=CARTESIAN_POINT('',(-22.9269700310826,-0.966882202670714,2.3));
#620=CARTESIAN_POINT('',(-20.0031588089763,-0.183449346886296,2.3));
#621=CARTESIAN_POINT('',(-20.3387795800574,-10.6261404655614,2.3));
#622=CARTESIAN_POINT('',(-20.3387795800574,-10.6261404655614,-2.16840434497101E-16));
#623=CARTESIAN_POINT('',(-20.3387795800574,-10.6261404655614,-2.4));
#624=CARTESIAN_POINT('',(-21.63287480557,-5.79651133411604,-2.4));
#625=CARTESIAN_POINT('',(-21.63287480557,-5.79651133411604,0.));
#626=CARTESIAN_POINT('',(-21.63287480557,-5.79651133411604,2.3));
#627=CARTESIAN_POINT('',(-17.4149683579511,-9.84270760977696,2.3));
#628=CARTESIAN_POINT('',(-17.4149683579511,-9.84270760977696,-2.16840434497101E-16));
#629=CARTESIAN_POINT('',(-17.4149683579511,-9.84270760977696,-2.4));
#630=CARTESIAN_POINT('',(-17.4149683579511,-9.84270760977696,-2.4));
#631=CARTESIAN_POINT('',(-17.4149683579511,-9.84270760977696,0.));
#632=CARTESIAN_POINT('',(-17.4149683579511,-9.84270760977696,2.3));
#633=CARTESIAN_POINT('',(19.3690478857377,-4.99999999999998,2.3));
#634=CARTESIAN_POINT('',(19.3690478857377,-4.99999999999998,-2.16840434497101E-16));
#635=CARTESIAN_POINT('',(19.3690478857377,-4.99999999999998,-2.4));
#636=CARTESIAN_POINT('',(0.,0.,-2.4));
#637=CARTESIAN_POINT('',(0.,0.,0.));
#638=CARTESIAN_POINT('',(0.,0.,2.3));
#639=CARTESIAN_POINT('',(-4.44089209850063E-16,-4.99999999999999,-2.4));
#640=CARTESIAN_POINT('',(22.396,-4.99999999999999,-2.4));
#641=CARTESIAN_POINT('',(-4.44089209850063E-16,-4.99999999999999,-2.16840434497101E-16));
#642=CARTESIAN_POINT('',(22.396,-4.99999999999999,-2.16840434497101E-16));
#643=CARTESIAN_POINT('',(22.396,-4.99999999999999,2.3));
#644=CARTESIAN_POINT('',(19.3690478857377,-4.99999999999999,2.3));
#645=CARTESIAN_POINT('',(22.396,0.,-2.4));
#646=CARTESIAN_POINT('',(22.396,0.,0.));
#647=CARTESIAN_POINT('',(22.396,0.,2.3));
#648=CARTESIAN_POINT('',(22.2738636073762,-22.2738636073762,0.));
#649=CARTESIAN_POINT('',(16.7738636073762,-22.2738636073762,0.));
#650=CARTESIAN_POINT('',(22.2738636073762,-22.2738636073762,-2.4));
#651=CARTESIAN_POINT('',(16.7738636073762,-22.2738636073762,-2.4));
#652=CARTESIAN_POINT('',(22.2738636073762,-22.2738636073762,2.3));
#653=CARTESIAN_POINT('',(-22.2738636073762,-22.2738636073762,0.));
#654=CARTESIAN_POINT('',(-27.7738636073762,-22.2738636073762,0.));
#655=CARTESIAN_POINT('',(-22.2738636073762,-22.2738636073762,-2.4));
#656=CARTESIAN_POINT('',(-27.7738636073762,-22.2738636073762,-2.4));
#657=CARTESIAN_POINT('',(-22.2738636073762,-22.2738636073762,2.3));
#658=CARTESIAN_POINT('',(-22.2738636073762,22.2738636073762,0.));
#659=CARTESIAN_POINT('',(-27.7738636073762,22.2738636073762,0.));
#660=CARTESIAN_POINT('',(-22.2738636073762,22.2738636073762,-2.4));
#661=CARTESIAN_POINT('',(-27.7738636073762,22.2738636073762,-2.4));
#662=CARTESIAN_POINT('',(-22.2738636073762,22.2738636073762,2.3));
#663=CARTESIAN_POINT('',(22.2738636073762,22.2738636073762,0.));
#664=CARTESIAN_POINT('',(16.7738636073762,22.2738636073762,0.));
#665=CARTESIAN_POINT('',(22.2738636073762,22.2738636073762,-2.4));
#666=CARTESIAN_POINT('',(16.7738636073762,22.2738636073762,-2.4));
#667=CARTESIAN_POINT('',(22.2738636073762,22.2738636073762,2.3));
#668=CARTESIAN_POINT('',(-4.44089209850063E-16,0.,-2.4));
#669=CARTESIAN_POINT('',(-79.4,0.,-2.4));
#670=CARTESIAN_POINT('',(-4.44089209850063E-16,0.,0.));
#671=CARTESIAN_POINT('',(-79.4,0.,0.));
#672=CARTESIAN_POINT('',(-4.44089209850063E-16,0.,-2.9));
#673=CARTESIAN_POINT('',(-4.44089209850063E-16,0.,-2.4));
#674=CARTESIAN_POINT('',(-4.44089209850063E-16,0.,-2.16840434497101E-16));
#675=CARTESIAN_POINT('',(0.,0.,-0.15087868937161));
#676=CARTESIAN_POINT('',(-70.6553190689159,0.,-0.15087868937161));
#677=CARTESIAN_POINT('',(0.,0.,0.345));
#678=CARTESIAN_POINT('',(-70.6553190689159,0.,0.345));
#679=CARTESIAN_POINT('',(0.,0.,0.));
#680=CARTESIAN_POINT('',(0.,0.,-2.745));
#681=CARTESIAN_POINT('',(80.,0.,-2.745));
#682=CARTESIAN_POINT('',(0.,0.,0.345));
#683=CARTESIAN_POINT('',(-80.,0.,0.345));
#684=CARTESIAN_POINT('',(0.,0.,0.));
#685=CARTESIAN_POINT('',(0.,0.,-2.24912131062839));
#686=CARTESIAN_POINT('',(-70.6553190689159,0.,-2.24912131062839));
#687=CARTESIAN_POINT('',(0.,0.,-2.745));
#688=CARTESIAN_POINT('',(70.6553190689159,0.,-2.745));
#689=CARTESIAN_POINT('',(0.,0.,0.));
#690=CARTESIAN_POINT('',(0.,0.,-1.45651510749425));
#691=CARTESIAN_POINT('',(-70.6382715412509,0.,-1.45651510749425));
#692=CARTESIAN_POINT('',(3.384927090513,-70.5946553106499,-3.10955434001391));
#693=CARTESIAN_POINT('',(0.,0.,0.));
#694=CARTESIAN_POINT('',(4.2989051843945E-13,-66.1588756580828,-2.745));
#695=CARTESIAN_POINT('',(5.8106368084131,-66.1588756580827,0.345));
#696=CARTESIAN_POINT('',(0.,0.,-0.943484892505748));
#697=CARTESIAN_POINT('',(-70.6382715412509,0.,-0.943484892505748));
#698=CARTESIAN_POINT('',(3.384927090513,-70.5946553106499,0.70955434001391));
#699=CARTESIAN_POINT('',(0.,0.,0.));
#700=CARTESIAN_POINT('',(4.10668103279651,-70.5187959144962,-0.943484892505751));
#701=CARTESIAN_POINT('',(4.17978399737856,-70.5111124833082,-1.11091323807917));
#702=CARTESIAN_POINT('',(4.17978399737856,-70.5111124833082,-1.28908676192083));
#703=CARTESIAN_POINT('',(4.10668103279651,-70.5187959144962,-1.45651510749425));
#704=CARTESIAN_POINT('',(0.,0.,0.));
#705=MECHANICAL_DESIGN_GEOMETRIC_PRESENTATION_REPRESENTATION('',(#406,#407,
#408,#409,#410),#706);
#706=(
GEOMETRIC_REPRESENTATION_CONTEXT(3)
GLOBAL_UNCERTAINTY_ASSIGNED_CONTEXT((#707))
GLOBAL_UNIT_ASSIGNED_CONTEXT((#713,#709,#708))
REPRESENTATION_CONTEXT('335.10-160-03','TOP_LEVEL_ASSEMBLY_PART')
);
#707=UNCERTAINTY_MEASURE_WITH_UNIT(LENGTH_MEASURE(2.E-5),#713,
'DISTANCE_ACCURACY_VALUE','Maximum Tolerance applied to model');
#708=(
NAMED_UNIT(*)
SI_UNIT($,.STERADIAN.)
SOLID_ANGLE_UNIT()
);
#709=(
CONVERSION_BASED_UNIT('DEGREE',#711)
NAMED_UNIT(#710)
PLANE_ANGLE_UNIT()
);
#710=DIMENSIONAL_EXPONENTS(0.,0.,0.,0.,0.,0.,0.);
#711=PLANE_ANGLE_MEASURE_WITH_UNIT(PLANE_ANGLE_MEASURE(0.0174532925),#712);
#712=(
NAMED_UNIT(*)
PLANE_ANGLE_UNIT()
SI_UNIT($,.RADIAN.)
);
#713=(
LENGTH_UNIT()
NAMED_UNIT(*)
SI_UNIT(.MILLI.,.METRE.)
);
ENDSEC;
END-ISO-10303-21;
