ISO-10303-21;
HEADER;
/* Generated by software containing ST-Developer
 * from STEP Tools, Inc. (www.steptools.com) 
 */
/* OPTION: using custom schema-name function */

FILE_DESCRIPTION(
/* description */ (''),
/* implementation_level */ '2;1');

FILE_NAME(
/* name */ '335.10-125-04.32-9.stp',
/* time_stamp */ '2017-09-14T10:21:08+06:00',
/* author */ (''),
/* organization */ (''),
/* preprocessor_version */ 'ST-DEVELOPER v16',
/* originating_system */ 'SIEMENS PLM Software NX 11.0',
/* authorisation */ '');

FILE_SCHEMA (('AUTOMOTIVE_DESIGN { 1 0 10303 214 3 1 1 1 }'));
ENDSEC;

DATA;
#10=CONSTRUCTIVE_GEOMETRY_REPRESENTATION_RELATIONSHIP(
'supplemental geometry','',#24,#11);
#11=CONSTRUCTIVE_GEOMETRY_REPRESENTATION('supplemental geometry',(#426,
#427,#428),#706);
#12=SHAPE_REPRESENTATION_RELATIONSHIP('None',
'relationship between 335.10-125-04.32-9-None and 335.10-125-04.32-9-N
one',#24,#13);
#13=ADVANCED_BREP_SHAPE_REPRESENTATION('335.10-125-04.32-9-None',(#42,#43),
#706);
#14=SHAPE_DEFINITION_REPRESENTATION(#15,#24);
#15=PRODUCT_DEFINITION_SHAPE('','',#16);
#16=PRODUCT_DEFINITION(' ','',#18,#17);
#17=PRODUCT_DEFINITION_CONTEXT('part definition',#23,'design');
#18=PRODUCT_DEFINITION_FORMATION_WITH_SPECIFIED_SOURCE(' ',' ',#20,
 .NOT_KNOWN.);
#19=PRODUCT_RELATED_PRODUCT_CATEGORY('part','',(#20));
#20=PRODUCT('335.10-125-04.32-9','335.10-125-04.32-9',' ',(#21));
#21=PRODUCT_CONTEXT(' ',#23,'mechanical');
#22=APPLICATION_PROTOCOL_DEFINITION('international standard',
'automotive_design',2010,#23);
#23=APPLICATION_CONTEXT(
'core data for automotive mechanical design processes');
#24=SHAPE_REPRESENTATION('335.10-125-04.32-9-None',(#425),#706);
#25=(
BOUNDED_CURVE()
B_SPLINE_CURVE(3,(#700,#701,#702,#703),.UNSPECIFIED.,.F.,.F.)
B_SPLINE_CURVE_WITH_KNOTS((4,4),(0.,1.),.UNSPECIFIED.)
CURVE()
GEOMETRIC_REPRESENTATION_ITEM()
RATIONAL_B_SPLINE_CURVE((1.,0.959795080523939,0.959795080523939,1.))
REPRESENTATION_ITEM('')
);
#26=SURFACE_OF_REVOLUTION('',#113,#29);
#27=SURFACE_OF_REVOLUTION('',#114,#30);
#28=SURFACE_OF_REVOLUTION('',#25,#31);
#29=AXIS1_PLACEMENT('',#680,#570);
#30=AXIS1_PLACEMENT('',#699,#594);
#31=AXIS1_PLACEMENT('',#704,#595);
#32=SURFACE_STYLE_USAGE(.BOTH.,#34);
#33=SURFACE_STYLE_USAGE(.BOTH.,#35);
#34=SURFACE_SIDE_STYLE('',(#36));
#35=SURFACE_SIDE_STYLE('',(#37));
#36=SURFACE_STYLE_FILL_AREA(#38);
#37=SURFACE_STYLE_FILL_AREA(#39);
#38=FILL_AREA_STYLE('',(#40));
#39=FILL_AREA_STYLE('',(#41));
#40=FILL_AREA_STYLE_COLOUR('',#420);
#41=FILL_AREA_STYLE_COLOUR('',#421);
#42=MANIFOLD_SOLID_BREP('NOCUT',#44);
#43=MANIFOLD_SOLID_BREP('CUT',#45);
#44=CLOSED_SHELL('',(#66,#67,#68,#69,#70,#71,#72,#73,#74,#75,#76,#77,#78,
#79,#80));
#45=CLOSED_SHELL('',(#81,#82,#83,#84,#85,#86,#87,#88));
#46=FACE_OUTER_BOUND('',#185,.T.);
#47=FACE_OUTER_BOUND('',#186,.T.);
#48=FACE_OUTER_BOUND('',#187,.T.);
#49=FACE_OUTER_BOUND('',#188,.T.);
#50=FACE_OUTER_BOUND('',#189,.T.);
#51=FACE_OUTER_BOUND('',#190,.T.);
#52=FACE_OUTER_BOUND('',#191,.T.);
#53=FACE_OUTER_BOUND('',#192,.T.);
#54=CYLINDRICAL_SURFACE('',#449,61.9);
#55=CYLINDRICAL_SURFACE('',#452,4.);
#56=CYLINDRICAL_SURFACE('',#455,4.00000000000001);
#57=CYLINDRICAL_SURFACE('',#456,16.00625);
#58=CYLINDRICAL_SURFACE('',#457,16.00625);
#59=CYLINDRICAL_SURFACE('',#458,3.);
#60=CYLINDRICAL_SURFACE('',#459,3.);
#61=CYLINDRICAL_SURFACE('',#460,3.);
#62=CYLINDRICAL_SURFACE('',#461,3.);
#63=CYLINDRICAL_SURFACE('',#465,53.1882805450835);
#64=CYLINDRICAL_SURFACE('',#469,62.5);
#65=CYLINDRICAL_SURFACE('',#473,53.1882805450835);
#66=ADVANCED_FACE('',(#133,#134,#135,#136,#137,#138),#89,.T.);
#67=ADVANCED_FACE('',(#139,#140,#141,#142,#143,#144),#90,.F.);
#68=ADVANCED_FACE('',(#145,#146),#54,.T.);
#69=ADVANCED_FACE('',(#46),#91,.T.);
#70=ADVANCED_FACE('',(#47),#92,.F.);
#71=ADVANCED_FACE('',(#48),#55,.F.);
#72=ADVANCED_FACE('',(#49),#93,.T.);
#73=ADVANCED_FACE('',(#50),#94,.T.);
#74=ADVANCED_FACE('',(#51),#56,.F.);
#75=ADVANCED_FACE('',(#52),#57,.F.);
#76=ADVANCED_FACE('',(#53),#58,.F.);
#77=ADVANCED_FACE('',(#147,#148),#59,.F.);
#78=ADVANCED_FACE('',(#149,#150),#60,.F.);
#79=ADVANCED_FACE('',(#151,#152),#61,.F.);
#80=ADVANCED_FACE('',(#153,#154),#62,.F.);
#81=ADVANCED_FACE('',(#155,#156),#26,.F.);
#82=ADVANCED_FACE('',(#157,#158),#63,.F.);
#83=ADVANCED_FACE('',(#159,#160),#95,.F.);
#84=ADVANCED_FACE('',(#161,#162),#64,.T.);
#85=ADVANCED_FACE('',(#163,#164),#96,.F.);
#86=ADVANCED_FACE('',(#165,#166),#65,.F.);
#87=ADVANCED_FACE('',(#167,#168),#27,.F.);
#88=ADVANCED_FACE('',(#169,#170),#28,.F.);
#89=PLANE('',#438);
#90=PLANE('',#448);
#91=PLANE('',#450);
#92=PLANE('',#451);
#93=PLANE('',#453);
#94=PLANE('',#454);
#95=PLANE('',#467);
#96=PLANE('',#471);
#97=LINE('',#613,#115);
#98=LINE('',#617,#116);
#99=LINE('',#621,#117);
#100=LINE('',#625,#118);
#101=LINE('',#637,#119);
#102=LINE('',#642,#120);
#103=LINE('',#646,#121);
#104=LINE('',#650,#122);
#105=LINE('',#655,#123);
#106=LINE('',#656,#124);
#107=LINE('',#658,#125);
#108=LINE('',#659,#126);
#109=LINE('',#662,#127);
#110=LINE('',#663,#128);
#111=LINE('',#665,#129);
#112=LINE('',#666,#130);
#113=LINE('',#679,#131);
#114=LINE('',#698,#132);
#115=VECTOR('',#495,1.);
#116=VECTOR('',#498,1.);
#117=VECTOR('',#501,1.);
#118=VECTOR('',#504,1.);
#119=VECTOR('',#517,1.);
#120=VECTOR('',#520,1.);
#121=VECTOR('',#523,1.);
#122=VECTOR('',#526,1.);
#123=VECTOR('',#533,1.);
#124=VECTOR('',#534,1.);
#125=VECTOR('',#537,1.);
#126=VECTOR('',#538,1.);
#127=VECTOR('',#543,1.);
#128=VECTOR('',#544,1.);
#129=VECTOR('',#547,1.);
#130=VECTOR('',#548,1.);
#131=VECTOR('',#569,0.939703600426238);
#132=VECTOR('',#593,1.80533157769862);
#133=FACE_BOUND('',#171,.T.);
#134=FACE_BOUND('',#172,.T.);
#135=FACE_BOUND('',#173,.T.);
#136=FACE_BOUND('',#174,.T.);
#137=FACE_BOUND('',#175,.T.);
#138=FACE_BOUND('',#176,.T.);
#139=FACE_BOUND('',#177,.T.);
#140=FACE_BOUND('',#178,.T.);
#141=FACE_BOUND('',#179,.T.);
#142=FACE_BOUND('',#180,.T.);
#143=FACE_BOUND('',#181,.T.);
#144=FACE_BOUND('',#182,.T.);
#145=FACE_BOUND('',#183,.T.);
#146=FACE_BOUND('',#184,.T.);
#147=FACE_BOUND('',#193,.T.);
#148=FACE_BOUND('',#194,.T.);
#149=FACE_BOUND('',#195,.T.);
#150=FACE_BOUND('',#196,.T.);
#151=FACE_BOUND('',#197,.T.);
#152=FACE_BOUND('',#198,.T.);
#153=FACE_BOUND('',#199,.T.);
#154=FACE_BOUND('',#200,.T.);
#155=FACE_BOUND('',#201,.T.);
#156=FACE_BOUND('',#202,.T.);
#157=FACE_BOUND('',#203,.T.);
#158=FACE_BOUND('',#204,.T.);
#159=FACE_BOUND('',#205,.T.);
#160=FACE_BOUND('',#206,.T.);
#161=FACE_BOUND('',#207,.T.);
#162=FACE_BOUND('',#208,.T.);
#163=FACE_BOUND('',#209,.T.);
#164=FACE_BOUND('',#210,.T.);
#165=FACE_BOUND('',#211,.T.);
#166=FACE_BOUND('',#212,.T.);
#167=FACE_BOUND('',#213,.T.);
#168=FACE_BOUND('',#214,.T.);
#169=FACE_BOUND('',#215,.T.);
#170=FACE_BOUND('',#216,.T.);
#171=EDGE_LOOP('',(#217));
#172=EDGE_LOOP('',(#218));
#173=EDGE_LOOP('',(#219));
#174=EDGE_LOOP('',(#220));
#175=EDGE_LOOP('',(#221));
#176=EDGE_LOOP('',(#222,#223,#224,#225,#226,#227,#228,#229));
#177=EDGE_LOOP('',(#230));
#178=EDGE_LOOP('',(#231));
#179=EDGE_LOOP('',(#232));
#180=EDGE_LOOP('',(#233));
#181=EDGE_LOOP('',(#234));
#182=EDGE_LOOP('',(#235,#236,#237,#238,#239,#240,#241,#242));
#183=EDGE_LOOP('',(#243));
#184=EDGE_LOOP('',(#244));
#185=EDGE_LOOP('',(#245,#246,#247,#248));
#186=EDGE_LOOP('',(#249,#250,#251,#252));
#187=EDGE_LOOP('',(#253,#254,#255,#256));
#188=EDGE_LOOP('',(#257,#258,#259,#260));
#189=EDGE_LOOP('',(#261,#262,#263,#264));
#190=EDGE_LOOP('',(#265,#266,#267,#268));
#191=EDGE_LOOP('',(#269,#270,#271,#272));
#192=EDGE_LOOP('',(#273,#274,#275,#276));
#193=EDGE_LOOP('',(#277));
#194=EDGE_LOOP('',(#278));
#195=EDGE_LOOP('',(#279));
#196=EDGE_LOOP('',(#280));
#197=EDGE_LOOP('',(#281));
#198=EDGE_LOOP('',(#282));
#199=EDGE_LOOP('',(#283));
#200=EDGE_LOOP('',(#284));
#201=EDGE_LOOP('',(#285));
#202=EDGE_LOOP('',(#286));
#203=EDGE_LOOP('',(#287));
#204=EDGE_LOOP('',(#288));
#205=EDGE_LOOP('',(#289));
#206=EDGE_LOOP('',(#290));
#207=EDGE_LOOP('',(#291));
#208=EDGE_LOOP('',(#292));
#209=EDGE_LOOP('',(#293));
#210=EDGE_LOOP('',(#294));
#211=EDGE_LOOP('',(#295));
#212=EDGE_LOOP('',(#296));
#213=EDGE_LOOP('',(#297));
#214=EDGE_LOOP('',(#298));
#215=EDGE_LOOP('',(#299));
#216=EDGE_LOOP('',(#300));
#217=ORIENTED_EDGE('',*,*,#335,.F.);
#218=ORIENTED_EDGE('',*,*,#336,.F.);
#219=ORIENTED_EDGE('',*,*,#337,.F.);
#220=ORIENTED_EDGE('',*,*,#338,.F.);
#221=ORIENTED_EDGE('',*,*,#339,.T.);
#222=ORIENTED_EDGE('',*,*,#340,.F.);
#223=ORIENTED_EDGE('',*,*,#341,.T.);
#224=ORIENTED_EDGE('',*,*,#342,.F.);
#225=ORIENTED_EDGE('',*,*,#343,.T.);
#226=ORIENTED_EDGE('',*,*,#344,.F.);
#227=ORIENTED_EDGE('',*,*,#345,.F.);
#228=ORIENTED_EDGE('',*,*,#346,.F.);
#229=ORIENTED_EDGE('',*,*,#347,.T.);
#230=ORIENTED_EDGE('',*,*,#348,.T.);
#231=ORIENTED_EDGE('',*,*,#349,.T.);
#232=ORIENTED_EDGE('',*,*,#350,.T.);
#233=ORIENTED_EDGE('',*,*,#351,.T.);
#234=ORIENTED_EDGE('',*,*,#352,.F.);
#235=ORIENTED_EDGE('',*,*,#353,.F.);
#236=ORIENTED_EDGE('',*,*,#354,.T.);
#237=ORIENTED_EDGE('',*,*,#355,.F.);
#238=ORIENTED_EDGE('',*,*,#356,.T.);
#239=ORIENTED_EDGE('',*,*,#357,.T.);
#240=ORIENTED_EDGE('',*,*,#358,.T.);
#241=ORIENTED_EDGE('',*,*,#359,.F.);
#242=ORIENTED_EDGE('',*,*,#360,.T.);
#243=ORIENTED_EDGE('',*,*,#339,.F.);
#244=ORIENTED_EDGE('',*,*,#352,.T.);
#245=ORIENTED_EDGE('',*,*,#361,.F.);
#246=ORIENTED_EDGE('',*,*,#359,.T.);
#247=ORIENTED_EDGE('',*,*,#362,.T.);
#248=ORIENTED_EDGE('',*,*,#343,.F.);
#249=ORIENTED_EDGE('',*,*,#345,.T.);
#250=ORIENTED_EDGE('',*,*,#363,.F.);
#251=ORIENTED_EDGE('',*,*,#357,.F.);
#252=ORIENTED_EDGE('',*,*,#364,.T.);
#253=ORIENTED_EDGE('',*,*,#344,.T.);
#254=ORIENTED_EDGE('',*,*,#362,.F.);
#255=ORIENTED_EDGE('',*,*,#358,.F.);
#256=ORIENTED_EDGE('',*,*,#363,.T.);
#257=ORIENTED_EDGE('',*,*,#365,.F.);
#258=ORIENTED_EDGE('',*,*,#355,.T.);
#259=ORIENTED_EDGE('',*,*,#366,.T.);
#260=ORIENTED_EDGE('',*,*,#347,.F.);
#261=ORIENTED_EDGE('',*,*,#367,.F.);
#262=ORIENTED_EDGE('',*,*,#353,.T.);
#263=ORIENTED_EDGE('',*,*,#368,.T.);
#264=ORIENTED_EDGE('',*,*,#341,.F.);
#265=ORIENTED_EDGE('',*,*,#340,.T.);
#266=ORIENTED_EDGE('',*,*,#366,.F.);
#267=ORIENTED_EDGE('',*,*,#354,.F.);
#268=ORIENTED_EDGE('',*,*,#367,.T.);
#269=ORIENTED_EDGE('',*,*,#346,.T.);
#270=ORIENTED_EDGE('',*,*,#364,.F.);
#271=ORIENTED_EDGE('',*,*,#356,.F.);
#272=ORIENTED_EDGE('',*,*,#365,.T.);
#273=ORIENTED_EDGE('',*,*,#342,.T.);
#274=ORIENTED_EDGE('',*,*,#368,.F.);
#275=ORIENTED_EDGE('',*,*,#360,.F.);
#276=ORIENTED_EDGE('',*,*,#361,.T.);
#277=ORIENTED_EDGE('',*,*,#338,.T.);
#278=ORIENTED_EDGE('',*,*,#351,.F.);
#279=ORIENTED_EDGE('',*,*,#337,.T.);
#280=ORIENTED_EDGE('',*,*,#350,.F.);
#281=ORIENTED_EDGE('',*,*,#336,.T.);
#282=ORIENTED_EDGE('',*,*,#349,.F.);
#283=ORIENTED_EDGE('',*,*,#335,.T.);
#284=ORIENTED_EDGE('',*,*,#348,.F.);
#285=ORIENTED_EDGE('',*,*,#369,.T.);
#286=ORIENTED_EDGE('',*,*,#370,.F.);
#287=ORIENTED_EDGE('',*,*,#371,.T.);
#288=ORIENTED_EDGE('',*,*,#369,.F.);
#289=ORIENTED_EDGE('',*,*,#371,.F.);
#290=ORIENTED_EDGE('',*,*,#372,.T.);
#291=ORIENTED_EDGE('',*,*,#373,.T.);
#292=ORIENTED_EDGE('',*,*,#372,.F.);
#293=ORIENTED_EDGE('',*,*,#373,.F.);
#294=ORIENTED_EDGE('',*,*,#374,.T.);
#295=ORIENTED_EDGE('',*,*,#375,.T.);
#296=ORIENTED_EDGE('',*,*,#374,.F.);
#297=ORIENTED_EDGE('',*,*,#376,.T.);
#298=ORIENTED_EDGE('',*,*,#375,.F.);
#299=ORIENTED_EDGE('',*,*,#370,.T.);
#300=ORIENTED_EDGE('',*,*,#376,.F.);
#301=VERTEX_POINT('',#601);
#302=VERTEX_POINT('',#603);
#303=VERTEX_POINT('',#605);
#304=VERTEX_POINT('',#607);
#305=VERTEX_POINT('',#609);
#306=VERTEX_POINT('',#611);
#307=VERTEX_POINT('',#612);
#308=VERTEX_POINT('',#614);
#309=VERTEX_POINT('',#616);
#310=VERTEX_POINT('',#618);
#311=VERTEX_POINT('',#620);
#312=VERTEX_POINT('',#622);
#313=VERTEX_POINT('',#624);
#314=VERTEX_POINT('',#628);
#315=VERTEX_POINT('',#630);
#316=VERTEX_POINT('',#632);
#317=VERTEX_POINT('',#634);
#318=VERTEX_POINT('',#636);
#319=VERTEX_POINT('',#638);
#320=VERTEX_POINT('',#639);
#321=VERTEX_POINT('',#641);
#322=VERTEX_POINT('',#643);
#323=VERTEX_POINT('',#645);
#324=VERTEX_POINT('',#647);
#325=VERTEX_POINT('',#649);
#326=VERTEX_POINT('',#651);
#327=VERTEX_POINT('',#676);
#328=VERTEX_POINT('',#678);
#329=VERTEX_POINT('',#682);
#330=VERTEX_POINT('',#685);
#331=VERTEX_POINT('',#688);
#332=VERTEX_POINT('',#691);
#333=VERTEX_POINT('',#694);
#334=VERTEX_POINT('',#697);
#335=EDGE_CURVE('',#301,#301,#377,.T.);
#336=EDGE_CURVE('',#302,#302,#378,.T.);
#337=EDGE_CURVE('',#303,#303,#379,.T.);
#338=EDGE_CURVE('',#304,#304,#380,.T.);
#339=EDGE_CURVE('',#305,#305,#381,.T.);
#340=EDGE_CURVE('',#306,#307,#382,.T.);
#341=EDGE_CURVE('',#306,#308,#97,.T.);
#342=EDGE_CURVE('',#309,#308,#383,.T.);
#343=EDGE_CURVE('',#309,#310,#98,.T.);
#344=EDGE_CURVE('',#311,#310,#384,.T.);
#345=EDGE_CURVE('',#312,#311,#99,.T.);
#346=EDGE_CURVE('',#313,#312,#385,.T.);
#347=EDGE_CURVE('',#313,#307,#100,.T.);
#348=EDGE_CURVE('',#314,#314,#386,.T.);
#349=EDGE_CURVE('',#315,#315,#387,.T.);
#350=EDGE_CURVE('',#316,#316,#388,.T.);
#351=EDGE_CURVE('',#317,#317,#389,.T.);
#352=EDGE_CURVE('',#318,#318,#390,.T.);
#353=EDGE_CURVE('',#319,#320,#101,.T.);
#354=EDGE_CURVE('',#319,#321,#391,.T.);
#355=EDGE_CURVE('',#322,#321,#102,.T.);
#356=EDGE_CURVE('',#322,#323,#392,.T.);
#357=EDGE_CURVE('',#323,#324,#103,.T.);
#358=EDGE_CURVE('',#324,#325,#393,.T.);
#359=EDGE_CURVE('',#326,#325,#104,.T.);
#360=EDGE_CURVE('',#326,#320,#394,.T.);
#361=EDGE_CURVE('',#326,#309,#105,.T.);
#362=EDGE_CURVE('',#325,#310,#106,.T.);
#363=EDGE_CURVE('',#324,#311,#107,.T.);
#364=EDGE_CURVE('',#323,#312,#108,.T.);
#365=EDGE_CURVE('',#322,#313,#109,.T.);
#366=EDGE_CURVE('',#321,#307,#110,.T.);
#367=EDGE_CURVE('',#319,#306,#111,.T.);
#368=EDGE_CURVE('',#320,#308,#112,.T.);
#369=EDGE_CURVE('',#327,#327,#395,.T.);
#370=EDGE_CURVE('',#328,#328,#396,.T.);
#371=EDGE_CURVE('',#329,#329,#397,.T.);
#372=EDGE_CURVE('',#330,#330,#398,.T.);
#373=EDGE_CURVE('',#331,#331,#399,.T.);
#374=EDGE_CURVE('',#332,#332,#400,.T.);
#375=EDGE_CURVE('',#333,#333,#401,.T.);
#376=EDGE_CURVE('',#334,#334,#402,.T.);
#377=CIRCLE('',#429,3.);
#378=CIRCLE('',#430,3.);
#379=CIRCLE('',#431,3.);
#380=CIRCLE('',#432,3.);
#381=CIRCLE('',#433,61.9);
#382=CIRCLE('',#434,4.00000000000001);
#383=CIRCLE('',#435,16.00625);
#384=CIRCLE('',#436,4.);
#385=CIRCLE('',#437,16.00625);
#386=CIRCLE('',#439,3.);
#387=CIRCLE('',#440,3.);
#388=CIRCLE('',#441,3.);
#389=CIRCLE('',#442,3.);
#390=CIRCLE('',#443,61.9);
#391=CIRCLE('',#444,4.00000000000001);
#392=CIRCLE('',#445,16.00625);
#393=CIRCLE('',#446,4.);
#394=CIRCLE('',#447,16.00625);
#395=CIRCLE('',#462,53.1882805450835);
#396=CIRCLE('',#463,53.1776038321409);
#397=CIRCLE('',#464,53.1882805450835);
#398=CIRCLE('',#466,62.5);
#399=CIRCLE('',#468,62.5);
#400=CIRCLE('',#470,53.1882805450835);
#401=CIRCLE('',#472,53.1882805450835);
#402=CIRCLE('',#474,53.1776038321409);
#403=PRESENTATION_LAYER_ASSIGNMENT('1','Layer 1',(#426,#427,#428));
#404=PRESENTATION_LAYER_ASSIGNMENT('2','Layer 2',(#42));
#405=PRESENTATION_LAYER_ASSIGNMENT('3','Layer 3',(#43));
#406=STYLED_ITEM('',(#411),#426);
#407=STYLED_ITEM('',(#412),#427);
#408=STYLED_ITEM('',(#413),#428);
#409=STYLED_ITEM('',(#414),#42);
#410=STYLED_ITEM('',(#415),#43);
#411=PRESENTATION_STYLE_ASSIGNMENT((#416));
#412=PRESENTATION_STYLE_ASSIGNMENT((#417));
#413=PRESENTATION_STYLE_ASSIGNMENT((#418));
#414=PRESENTATION_STYLE_ASSIGNMENT((#32));
#415=PRESENTATION_STYLE_ASSIGNMENT((#33));
#416=CURVE_STYLE('',#422,POSITIVE_LENGTH_MEASURE(0.18),#419);
#417=CURVE_STYLE('',#423,POSITIVE_LENGTH_MEASURE(0.18),#419);
#418=CURVE_STYLE('',#424,POSITIVE_LENGTH_MEASURE(0.18),#419);
#419=COLOUR_RGB('Medium Maroon',0.6,0.4,0.4);
#420=COLOUR_RGB('Medium Gray',0.490196078431373,0.490196078431373,0.490196078431373);
#421=COLOUR_RGB('Light Gray',0.8,0.8,0.8);
#422=DRAUGHTING_PRE_DEFINED_CURVE_FONT('continuous');
#423=DRAUGHTING_PRE_DEFINED_CURVE_FONT('continuous');
#424=DRAUGHTING_PRE_DEFINED_CURVE_FONT('continuous');
#425=AXIS2_PLACEMENT_3D('',#596,#475,#476);
#426=AXIS2_PLACEMENT_3D('PCS',#597,#477,#478);
#427=AXIS2_PLACEMENT_3D('MCS',#598,#479,#480);
#428=AXIS2_PLACEMENT_3D('CIP',#599,#481,#482);
#429=AXIS2_PLACEMENT_3D('',#600,#483,#484);
#430=AXIS2_PLACEMENT_3D('',#602,#485,#486);
#431=AXIS2_PLACEMENT_3D('',#604,#487,#488);
#432=AXIS2_PLACEMENT_3D('',#606,#489,#490);
#433=AXIS2_PLACEMENT_3D('',#608,#491,#492);
#434=AXIS2_PLACEMENT_3D('',#610,#493,#494);
#435=AXIS2_PLACEMENT_3D('',#615,#496,#497);
#436=AXIS2_PLACEMENT_3D('',#619,#499,#500);
#437=AXIS2_PLACEMENT_3D('',#623,#502,#503);
#438=AXIS2_PLACEMENT_3D('',#626,#505,#506);
#439=AXIS2_PLACEMENT_3D('',#627,#507,#508);
#440=AXIS2_PLACEMENT_3D('',#629,#509,#510);
#441=AXIS2_PLACEMENT_3D('',#631,#511,#512);
#442=AXIS2_PLACEMENT_3D('',#633,#513,#514);
#443=AXIS2_PLACEMENT_3D('',#635,#515,#516);
#444=AXIS2_PLACEMENT_3D('',#640,#518,#519);
#445=AXIS2_PLACEMENT_3D('',#644,#521,#522);
#446=AXIS2_PLACEMENT_3D('',#648,#524,#525);
#447=AXIS2_PLACEMENT_3D('',#652,#527,#528);
#448=AXIS2_PLACEMENT_3D('',#653,#529,#530);
#449=AXIS2_PLACEMENT_3D('',#654,#531,#532);
#450=AXIS2_PLACEMENT_3D('',#657,#535,#536);
#451=AXIS2_PLACEMENT_3D('',#660,#539,#540);
#452=AXIS2_PLACEMENT_3D('',#661,#541,#542);
#453=AXIS2_PLACEMENT_3D('',#664,#545,#546);
#454=AXIS2_PLACEMENT_3D('',#667,#549,#550);
#455=AXIS2_PLACEMENT_3D('',#668,#551,#552);
#456=AXIS2_PLACEMENT_3D('',#669,#553,#554);
#457=AXIS2_PLACEMENT_3D('',#670,#555,#556);
#458=AXIS2_PLACEMENT_3D('',#671,#557,#558);
#459=AXIS2_PLACEMENT_3D('',#672,#559,#560);
#460=AXIS2_PLACEMENT_3D('',#673,#561,#562);
#461=AXIS2_PLACEMENT_3D('',#674,#563,#564);
#462=AXIS2_PLACEMENT_3D('',#675,#565,#566);
#463=AXIS2_PLACEMENT_3D('',#677,#567,#568);
#464=AXIS2_PLACEMENT_3D('',#681,#571,#572);
#465=AXIS2_PLACEMENT_3D('',#683,#573,#574);
#466=AXIS2_PLACEMENT_3D('',#684,#575,#576);
#467=AXIS2_PLACEMENT_3D('',#686,#577,#578);
#468=AXIS2_PLACEMENT_3D('',#687,#579,#580);
#469=AXIS2_PLACEMENT_3D('',#689,#581,#582);
#470=AXIS2_PLACEMENT_3D('',#690,#583,#584);
#471=AXIS2_PLACEMENT_3D('',#692,#585,#586);
#472=AXIS2_PLACEMENT_3D('',#693,#587,#588);
#473=AXIS2_PLACEMENT_3D('',#695,#589,#590);
#474=AXIS2_PLACEMENT_3D('',#696,#591,#592);
#475=DIRECTION('',(0.,0.,1.));
#476=DIRECTION('',(1.,0.,0.));
#477=DIRECTION('',(0.,0.,1.));
#478=DIRECTION('',(1.,0.,0.));
#479=DIRECTION('',(0.,0.,1.));
#480=DIRECTION('',(1.,0.,0.));
#481=DIRECTION('',(0.,0.,1.));
#482=DIRECTION('',(1.,0.,0.));
#483=DIRECTION('',(0.,0.,-1.));
#484=DIRECTION('',(0.,-1.,0.));
#485=DIRECTION('',(0.,0.,-1.));
#486=DIRECTION('',(0.,-1.,0.));
#487=DIRECTION('',(0.,0.,-1.));
#488=DIRECTION('',(0.,-1.,0.));
#489=DIRECTION('',(0.,0.,-1.));
#490=DIRECTION('',(0.,-1.,0.));
#491=DIRECTION('',(0.,0.,-1.));
#492=DIRECTION('',(-1.,-6.12323399573677E-17,0.));
#493=DIRECTION('',(0.,0.,-1.));
#494=DIRECTION('',(0.,-1.,0.));
#495=DIRECTION('',(-1.,0.,0.));
#496=DIRECTION('',(0.,0.,-1.));
#497=DIRECTION('',(0.,-1.,0.));
#498=DIRECTION('',(-1.,-3.95088302462607E-16,0.));
#499=DIRECTION('',(0.,0.,-1.));
#500=DIRECTION('',(0.,-1.,0.));
#501=DIRECTION('',(-1.,4.74105962955128E-15,0.));
#502=DIRECTION('',(0.,0.,-1.));
#503=DIRECTION('',(0.,-1.,0.));
#504=DIRECTION('',(1.,3.95088302462604E-16,0.));
#505=DIRECTION('',(0.,0.,-1.));
#506=DIRECTION('',(0.,-1.,0.));
#507=DIRECTION('',(0.,0.,-1.));
#508=DIRECTION('',(0.,-1.,0.));
#509=DIRECTION('',(0.,0.,-1.));
#510=DIRECTION('',(0.,-1.,0.));
#511=DIRECTION('',(0.,0.,-1.));
#512=DIRECTION('',(0.,-1.,0.));
#513=DIRECTION('',(0.,0.,-1.));
#514=DIRECTION('',(0.,-1.,0.));
#515=DIRECTION('',(0.,0.,-1.));
#516=DIRECTION('',(-1.,-6.12323399573677E-17,0.));
#517=DIRECTION('',(-1.,0.,0.));
#518=DIRECTION('',(0.,0.,-1.));
#519=DIRECTION('',(0.,-1.,0.));
#520=DIRECTION('',(1.,3.95088302462604E-16,0.));
#521=DIRECTION('',(0.,0.,-1.));
#522=DIRECTION('',(0.,-1.,0.));
#523=DIRECTION('',(-1.,4.74105962955128E-15,0.));
#524=DIRECTION('',(0.,0.,-1.));
#525=DIRECTION('',(0.,-1.,0.));
#526=DIRECTION('',(-1.,-3.95088302462607E-16,0.));
#527=DIRECTION('',(0.,0.,-1.));
#528=DIRECTION('',(0.,-1.,0.));
#529=DIRECTION('',(0.,0.,-1.));
#530=DIRECTION('',(0.,-1.,0.));
#531=DIRECTION('',(0.,0.,1.));
#532=DIRECTION('',(0.,1.,0.));
#533=DIRECTION('',(0.,0.,-1.));
#534=DIRECTION('',(0.,0.,-1.));
#535=DIRECTION('',(3.95088302462607E-16,-1.,0.));
#536=DIRECTION('',(-1.,-3.95516952522712E-16,0.));
#537=DIRECTION('',(0.,0.,-1.));
#538=DIRECTION('',(0.,0.,-1.));
#539=DIRECTION('',(-4.74105962955128E-15,-1.,0.));
#540=DIRECTION('',(-1.,4.74099925984461E-15,0.));
#541=DIRECTION('',(0.,0.,-1.));
#542=DIRECTION('',(0.,-1.,0.));
#543=DIRECTION('',(0.,0.,-1.));
#544=DIRECTION('',(0.,0.,-1.));
#545=DIRECTION('',(-3.95088302462604E-16,1.,0.));
#546=DIRECTION('',(1.,3.95516952522712E-16,0.));
#547=DIRECTION('',(0.,0.,-1.));
#548=DIRECTION('',(0.,0.,-1.));
#549=DIRECTION('',(0.,-1.,0.));
#550=DIRECTION('',(0.,0.,1.));
#551=DIRECTION('',(0.,0.,-1.));
#552=DIRECTION('',(0.,-1.,0.));
#553=DIRECTION('',(0.,0.,-1.));
#554=DIRECTION('',(0.,-1.,0.));
#555=DIRECTION('',(0.,0.,-1.));
#556=DIRECTION('',(0.,-1.,0.));
#557=DIRECTION('',(0.,0.,-1.));
#558=DIRECTION('',(0.,-1.,0.));
#559=DIRECTION('',(0.,0.,-1.));
#560=DIRECTION('',(0.,-1.,0.));
#561=DIRECTION('',(0.,0.,-1.));
#562=DIRECTION('',(0.,-1.,0.));
#563=DIRECTION('',(0.,0.,-1.));
#564=DIRECTION('',(0.,-1.,0.));
#565=DIRECTION('',(0.,0.,-1.));
#566=DIRECTION('',(-1.,0.,0.));
#567=DIRECTION('',(0.,0.,-1.));
#568=DIRECTION('',(-1.,0.,0.));
#569=DIRECTION('',(-0.401013161777086,0.0280415719504562,-0.9156430059385));
#570=DIRECTION('',(0.,0.,-1.));
#571=DIRECTION('',(0.,0.,-1.));
#572=DIRECTION('',(-1.,0.,0.));
#573=DIRECTION('',(0.,0.,-1.));
#574=DIRECTION('',(1.,0.,0.));
#575=DIRECTION('',(0.,0.,-1.));
#576=DIRECTION('',(-1.,0.,0.));
#577=DIRECTION('',(0.,0.,1.));
#578=DIRECTION('',(-1.,0.,0.));
#579=DIRECTION('',(0.,0.,-1.));
#580=DIRECTION('',(-1.,0.,0.));
#581=DIRECTION('',(0.,0.,-1.));
#582=DIRECTION('',(1.,0.,0.));
#583=DIRECTION('',(0.,0.,-1.));
#584=DIRECTION('',(-1.,0.,0.));
#585=DIRECTION('',(0.,0.,-1.));
#586=DIRECTION('',(1.,0.,0.));
#587=DIRECTION('',(0.,0.,-1.));
#588=DIRECTION('',(-1.,0.,0.));
#589=DIRECTION('',(0.,0.,-1.));
#590=DIRECTION('',(1.,0.,0.));
#591=DIRECTION('',(0.,0.,-1.));
#592=DIRECTION('',(-1.,0.,0.));
#593=DIRECTION('',(0.401013161777086,-0.0280415719504562,-0.9156430059385));
#594=DIRECTION('',(0.,0.,-1.));
#595=DIRECTION('',(0.,0.,-1.));
#596=CARTESIAN_POINT('',(0.,0.,0.));
#597=CARTESIAN_POINT('',(0.,0.,0.));
#598=CARTESIAN_POINT('',(0.,0.,0.));
#599=CARTESIAN_POINT('',(0.,0.,-3.745));
#600=CARTESIAN_POINT('',(15.9099025766973,15.9099025766973,-3.4));
#601=CARTESIAN_POINT('',(15.9099025766973,12.9099025766973,-3.4));
#602=CARTESIAN_POINT('',(-15.9099025766973,15.9099025766973,-3.4));
#603=CARTESIAN_POINT('',(-15.9099025766973,12.9099025766973,-3.4));
#604=CARTESIAN_POINT('',(-15.9099025766973,-15.9099025766973,-3.4));
#605=CARTESIAN_POINT('',(-15.9099025766973,-18.9099025766973,-3.4));
#606=CARTESIAN_POINT('',(15.9099025766973,-15.9099025766973,-3.4));
#607=CARTESIAN_POINT('',(15.9099025766973,-18.9099025766973,-3.4));
#608=CARTESIAN_POINT('',(-4.44089209850063E-16,0.,-3.4));
#609=CARTESIAN_POINT('',(-61.9,-3.79028184336106E-15,-3.4));
#610=CARTESIAN_POINT('',(17.69375,-6.93889390390723E-15,-3.4));
#611=CARTESIAN_POINT('',(17.69375,4.,-3.4));
#612=CARTESIAN_POINT('',(17.69375,-4.00000000000001,-3.4));
#613=CARTESIAN_POINT('',(-4.44089209850063E-16,4.,-3.4));
#614=CARTESIAN_POINT('',(15.4983882730592,4.,-3.4));
#615=CARTESIAN_POINT('',(0.,0.,-3.4));
#616=CARTESIAN_POINT('',(-15.4983882730592,4.,-3.4));
#617=CARTESIAN_POINT('',(-2.02444241970049E-15,4.00000000000001,-3.4));
#618=CARTESIAN_POINT('',(-17.69375,4.,-3.4));
#619=CARTESIAN_POINT('',(-17.69375,3.46944695195361E-15,-3.4));
#620=CARTESIAN_POINT('',(-17.69375,-4.,-3.4));
#621=CARTESIAN_POINT('',(-1.94083277280556E-14,-4.00000000000008,-3.4));
#622=CARTESIAN_POINT('',(-15.4983882730592,-4.00000000000001,-3.4));
#623=CARTESIAN_POINT('',(0.,0.,-3.4));
#624=CARTESIAN_POINT('',(15.4983882730592,-3.99999999999999,-3.4));
#625=CARTESIAN_POINT('',(1.13626400000036E-15,-4.,-3.4));
#626=CARTESIAN_POINT('',(-4.44089209850063E-16,0.,-3.4));
#627=CARTESIAN_POINT('',(15.9099025766973,15.9099025766973,0.));
#628=CARTESIAN_POINT('',(15.9099025766973,12.9099025766973,0.));
#629=CARTESIAN_POINT('',(-15.9099025766973,15.9099025766973,0.));
#630=CARTESIAN_POINT('',(-15.9099025766973,12.9099025766973,0.));
#631=CARTESIAN_POINT('',(-15.9099025766973,-15.9099025766973,0.));
#632=CARTESIAN_POINT('',(-15.9099025766973,-18.9099025766973,0.));
#633=CARTESIAN_POINT('',(15.9099025766973,-15.9099025766973,0.));
#634=CARTESIAN_POINT('',(15.9099025766973,-18.9099025766973,0.));
#635=CARTESIAN_POINT('',(-4.44089209850063E-16,0.,0.));
#636=CARTESIAN_POINT('',(-61.9,-3.79028184336106E-15,0.));
#637=CARTESIAN_POINT('',(-4.44089209850063E-16,4.,0.));
#638=CARTESIAN_POINT('',(17.69375,4.,0.));
#639=CARTESIAN_POINT('',(15.4983882730592,4.,0.));
#640=CARTESIAN_POINT('',(17.69375,-6.93889390390723E-15,0.));
#641=CARTESIAN_POINT('',(17.69375,-4.00000000000001,0.));
#642=CARTESIAN_POINT('',(1.13626400000036E-15,-4.,0.));
#643=CARTESIAN_POINT('',(15.4983882730592,-3.99999999999999,0.));
#644=CARTESIAN_POINT('',(0.,0.,0.));
#645=CARTESIAN_POINT('',(-15.4983882730592,-4.00000000000001,0.));
#646=CARTESIAN_POINT('',(-1.94083277280556E-14,-4.00000000000008,0.));
#647=CARTESIAN_POINT('',(-17.69375,-4.,0.));
#648=CARTESIAN_POINT('',(-17.69375,3.46944695195361E-15,0.));
#649=CARTESIAN_POINT('',(-17.69375,4.,0.));
#650=CARTESIAN_POINT('',(-2.02444241970049E-15,4.00000000000001,0.));
#651=CARTESIAN_POINT('',(-15.4983882730592,4.,0.));
#652=CARTESIAN_POINT('',(0.,0.,0.));
#653=CARTESIAN_POINT('',(-4.44089209850063E-16,0.,0.));
#654=CARTESIAN_POINT('',(-4.44089209850063E-16,0.,-3.4));
#655=CARTESIAN_POINT('',(-15.4983882730592,4.,3.8));
#656=CARTESIAN_POINT('',(-17.69375,4.,3.8));
#657=CARTESIAN_POINT('',(-15.4983882730592,4.,3.8));
#658=CARTESIAN_POINT('',(-17.69375,-4.,3.8));
#659=CARTESIAN_POINT('',(-15.4983882730592,-4.00000000000001,3.8));
#660=CARTESIAN_POINT('',(-15.4983882730592,-4.00000000000001,3.8));
#661=CARTESIAN_POINT('',(-17.69375,3.46944695195361E-15,3.8));
#662=CARTESIAN_POINT('',(15.4983882730592,-3.99999999999999,3.8));
#663=CARTESIAN_POINT('',(17.69375,-4.00000000000001,3.8));
#664=CARTESIAN_POINT('',(15.4983882730592,-4.,3.8));
#665=CARTESIAN_POINT('',(17.69375,4.,3.8));
#666=CARTESIAN_POINT('',(15.4983882730592,4.,3.8));
#667=CARTESIAN_POINT('',(17.69375,4.,3.8));
#668=CARTESIAN_POINT('',(17.69375,-6.93889390390723E-15,3.8));
#669=CARTESIAN_POINT('',(0.,0.,3.8));
#670=CARTESIAN_POINT('',(0.,0.,3.8));
#671=CARTESIAN_POINT('',(15.9099025766973,-15.9099025766973,3.8));
#672=CARTESIAN_POINT('',(-15.9099025766973,-15.9099025766973,3.8));
#673=CARTESIAN_POINT('',(-15.9099025766973,15.9099025766973,3.8));
#674=CARTESIAN_POINT('',(15.9099025766973,15.9099025766973,3.8));
#675=CARTESIAN_POINT('',(0.,0.,-2.7491213106284));
#676=CARTESIAN_POINT('',(-53.1882805450835,0.,-2.7491213106284));
#677=CARTESIAN_POINT('',(0.,0.,-1.95651510749425));
#678=CARTESIAN_POINT('',(-53.1776038321409,0.,-1.95651510749425));
#679=CARTESIAN_POINT('',(-5.88628769642994,-52.8758146142419,-3.60955434001391));
#680=CARTESIAN_POINT('',(0.,0.,0.));
#681=CARTESIAN_POINT('',(0.,0.,-3.745));
#682=CARTESIAN_POINT('',(-53.1882805450835,0.,-3.745));
#683=CARTESIAN_POINT('',(0.,0.,0.));
#684=CARTESIAN_POINT('',(0.,0.,-3.745));
#685=CARTESIAN_POINT('',(-62.5,0.,-3.745));
#686=CARTESIAN_POINT('',(-8.44952508534743,-47.919638000937,-3.745));
#687=CARTESIAN_POINT('',(0.,0.,0.34500000000001));
#688=CARTESIAN_POINT('',(-62.5,0.,0.34500000000001));
#689=CARTESIAN_POINT('',(0.,0.,0.));
#690=CARTESIAN_POINT('',(0.,0.,0.345));
#691=CARTESIAN_POINT('',(-53.1882805450835,0.,0.345));
#692=CARTESIAN_POINT('',(-2.72716490648452,-48.9286444938022,0.345));
#693=CARTESIAN_POINT('',(0.,0.,-0.65087868937159));
#694=CARTESIAN_POINT('',(-53.1882805450835,0.,-0.65087868937159));
#695=CARTESIAN_POINT('',(0.,0.,0.));
#696=CARTESIAN_POINT('',(0.,0.,-1.44348489250575));
#697=CARTESIAN_POINT('',(-53.1776038321409,0.,-1.44348489250575));
#698=CARTESIAN_POINT('',(-5.88628769642994,-52.8758146142419,0.20955434001391));
#699=CARTESIAN_POINT('',(0.,0.,0.));
#700=CARTESIAN_POINT('',(-5.16232597240101,-52.9264389495724,-1.44348489250575));
#701=CARTESIAN_POINT('',(-5.08899939228839,-52.9315664435504,-1.61091323807917));
#702=CARTESIAN_POINT('',(-5.08899939228839,-52.9315664435504,-1.78908676192083));
#703=CARTESIAN_POINT('',(-5.16232597240101,-52.9264389495724,-1.95651510749425));
#704=CARTESIAN_POINT('',(0.,0.,0.));
#705=MECHANICAL_DESIGN_GEOMETRIC_PRESENTATION_REPRESENTATION('',(#406,#407,
#408,#409,#410),#706);
#706=(
GEOMETRIC_REPRESENTATION_CONTEXT(3)
GLOBAL_UNCERTAINTY_ASSIGNED_CONTEXT((#707))
GLOBAL_UNIT_ASSIGNED_CONTEXT((#713,#709,#708))
REPRESENTATION_CONTEXT('335.10-125-04','TOP_LEVEL_ASSEMBLY_PART')
);
#707=UNCERTAINTY_MEASURE_WITH_UNIT(LENGTH_MEASURE(2.E-5),#713,
'DISTANCE_ACCURACY_VALUE','Maximum Tolerance applied to model');
#708=(
NAMED_UNIT(*)
SI_UNIT($,.STERADIAN.)
SOLID_ANGLE_UNIT()
);
#709=(
CONVERSION_BASED_UNIT('DEGREE',#711)
NAMED_UNIT(#710)
PLANE_ANGLE_UNIT()
);
#710=DIMENSIONAL_EXPONENTS(0.,0.,0.,0.,0.,0.,0.);
#711=PLANE_ANGLE_MEASURE_WITH_UNIT(PLANE_ANGLE_MEASURE(0.0174532925),#712);
#712=(
NAMED_UNIT(*)
PLANE_ANGLE_UNIT()
SI_UNIT($,.RADIAN.)
);
#713=(
LENGTH_UNIT()
NAMED_UNIT(*)
SI_UNIT(.MILLI.,.METRE.)
);
ENDSEC;
END-ISO-10303-21;
