ISO-10303-21;
HEADER;
/* Generated by software containing ST-Developer
 * from STEP Tools, Inc. (www.steptools.com) 
 */
/* OPTION: using custom schema-name function */

FILE_DESCRIPTION(
/* description */ (''),
/* implementation_level */ '2;1');

FILE_NAME(
/* name */ '335.10-080-04.22-6.stp',
/* time_stamp */ '2017-09-14T10:21:10+06:00',
/* author */ (''),
/* organization */ (''),
/* preprocessor_version */ 'ST-DEVELOPER v16',
/* originating_system */ 'SIEMENS PLM Software NX 11.0',
/* authorisation */ '');

FILE_SCHEMA (('AUTOMOTIVE_DESIGN { 1 0 10303 214 3 1 1 1 }'));
ENDSEC;

DATA;
#10=CONSTRUCTIVE_GEOMETRY_REPRESENTATION_RELATIONSHIP(
'supplemental geometry','',#24,#11);
#11=CONSTRUCTIVE_GEOMETRY_REPRESENTATION('supplemental geometry',(#384,
#385,#386),#654);
#12=SHAPE_REPRESENTATION_RELATIONSHIP('None',
'relationship between 335.10-080-04.22-6-None and 335.10-080-04.22-6-N
one',#24,#13);
#13=ADVANCED_BREP_SHAPE_REPRESENTATION('335.10-080-04.22-6-None',(#47,#48),
#654);
#14=SHAPE_DEFINITION_REPRESENTATION(#15,#24);
#15=PRODUCT_DEFINITION_SHAPE('','',#16);
#16=PRODUCT_DEFINITION(' ','',#18,#17);
#17=PRODUCT_DEFINITION_CONTEXT('part definition',#23,'design');
#18=PRODUCT_DEFINITION_FORMATION_WITH_SPECIFIED_SOURCE(' ',' ',#20,
 .NOT_KNOWN.);
#19=PRODUCT_RELATED_PRODUCT_CATEGORY('part','',(#20));
#20=PRODUCT('335.10-080-04.22-6','335.10-080-04.22-6',' ',(#21));
#21=PRODUCT_CONTEXT(' ',#23,'mechanical');
#22=APPLICATION_PROTOCOL_DEFINITION('international standard',
'automotive_design',2010,#23);
#23=APPLICATION_CONTEXT(
'core data for automotive mechanical design processes');
#24=SHAPE_REPRESENTATION('335.10-080-04.22-6-None',(#383),#654);
#25=TOROIDAL_SURFACE('',#429,39.803391,0.2);
#26=TOROIDAL_SURFACE('',#430,39.803391,0.2);
#27=SURFACE_OF_REVOLUTION('',#29,#28);
#28=AXIS1_PLACEMENT('',#637,#521);
#29=B_SPLINE_CURVE_WITH_KNOTS('',3,(#623,#624,#625,#626,#627,#628,#629,
#630,#631,#632,#633,#634,#635,#636),.UNSPECIFIED.,.F.,.F.,(4,2,2,2,2,2,
4),(0.,0.175477024750824,0.349332704078774,0.520861325762946,0.688749949431265,
0.847398596187371,1.),.UNSPECIFIED.);
#30=CONICAL_SURFACE('',#410,39.812162,89.3313901421276);
#31=CONICAL_SURFACE('',#413,39.777886,89.3582849180807);
#32=CONICAL_SURFACE('',#418,36.15,85.9999609583272);
#33=CONICAL_SURFACE('',#420,37.055651,85.999983556379);
#34=CONICAL_SURFACE('',#425,39.777886,85.999983556379);
#35=CONICAL_SURFACE('',#427,37.055651,86.000114155996);
#36=CONICAL_SURFACE('',#428,36.717974,85.9999609583272);
#37=SURFACE_STYLE_USAGE(.BOTH.,#39);
#38=SURFACE_STYLE_USAGE(.BOTH.,#40);
#39=SURFACE_SIDE_STYLE('',(#41));
#40=SURFACE_SIDE_STYLE('',(#42));
#41=SURFACE_STYLE_FILL_AREA(#43);
#42=SURFACE_STYLE_FILL_AREA(#44);
#43=FILL_AREA_STYLE('',(#45));
#44=FILL_AREA_STYLE('',(#46));
#45=FILL_AREA_STYLE_COLOUR('',#378);
#46=FILL_AREA_STYLE_COLOUR('',#379);
#47=MANIFOLD_SOLID_BREP('NOCUT',#49);
#48=MANIFOLD_SOLID_BREP('CUT',#50);
#49=CLOSED_SHELL('',(#87,#88,#89,#90,#91,#92,#93,#94,#95,#96,#97));
#50=CLOSED_SHELL('',(#98,#99,#100,#101,#102,#103,#104,#105,#106,#107,#108,
#109));
#51=PLANE('',#394);
#52=PLANE('',#400);
#53=PLANE('',#403);
#54=PLANE('',#404);
#55=PLANE('',#406);
#56=PLANE('',#407);
#57=FACE_BOUND('',#126,.T.);
#58=FACE_BOUND('',#127,.T.);
#59=FACE_BOUND('',#129,.T.);
#60=FACE_BOUND('',#130,.T.);
#61=FACE_BOUND('',#131,.T.);
#62=FACE_BOUND('',#132,.T.);
#63=FACE_BOUND('',#139,.T.);
#64=FACE_BOUND('',#140,.T.);
#65=FACE_BOUND('',#141,.T.);
#66=FACE_BOUND('',#142,.T.);
#67=FACE_BOUND('',#143,.T.);
#68=FACE_BOUND('',#144,.T.);
#69=FACE_BOUND('',#145,.T.);
#70=FACE_BOUND('',#146,.T.);
#71=FACE_BOUND('',#147,.T.);
#72=FACE_BOUND('',#148,.T.);
#73=FACE_BOUND('',#149,.T.);
#74=FACE_BOUND('',#150,.T.);
#75=FACE_BOUND('',#151,.T.);
#76=FACE_BOUND('',#152,.T.);
#77=FACE_BOUND('',#153,.T.);
#78=FACE_BOUND('',#154,.T.);
#79=FACE_BOUND('',#155,.T.);
#80=FACE_BOUND('',#156,.T.);
#81=FACE_BOUND('',#157,.T.);
#82=FACE_BOUND('',#158,.T.);
#83=FACE_BOUND('',#159,.T.);
#84=FACE_BOUND('',#160,.T.);
#85=FACE_BOUND('',#161,.T.);
#86=FACE_BOUND('',#162,.T.);
#87=ADVANCED_FACE('',(#117),#110,.F.);
#88=ADVANCED_FACE('',(#57,#58),#51,.T.);
#89=ADVANCED_FACE('',(#118),#111,.F.);
#90=ADVANCED_FACE('',(#59,#60),#52,.T.);
#91=ADVANCED_FACE('',(#61,#62),#112,.T.);
#92=ADVANCED_FACE('',(#119),#113,.F.);
#93=ADVANCED_FACE('',(#120),#53,.F.);
#94=ADVANCED_FACE('',(#121),#54,.F.);
#95=ADVANCED_FACE('',(#122),#114,.F.);
#96=ADVANCED_FACE('',(#123),#55,.F.);
#97=ADVANCED_FACE('',(#124),#56,.F.);
#98=ADVANCED_FACE('',(#63,#64),#30,.T.);
#99=ADVANCED_FACE('',(#65,#66),#31,.T.);
#100=ADVANCED_FACE('',(#67,#68),#115,.F.);
#101=ADVANCED_FACE('',(#69,#70),#32,.F.);
#102=ADVANCED_FACE('',(#71,#72),#27,.T.);
#103=ADVANCED_FACE('',(#73,#74),#33,.F.);
#104=ADVANCED_FACE('',(#75,#76),#116,.T.);
#105=ADVANCED_FACE('',(#77,#78),#34,.F.);
#106=ADVANCED_FACE('',(#79,#80),#35,.F.);
#107=ADVANCED_FACE('',(#81,#82),#36,.F.);
#108=ADVANCED_FACE('',(#83,#84),#25,.T.);
#109=ADVANCED_FACE('',(#85,#86),#26,.T.);
#110=CYLINDRICAL_SURFACE('',#389,11.);
#111=CYLINDRICAL_SURFACE('',#396,11.);
#112=CYLINDRICAL_SURFACE('',#401,39.4);
#113=CYLINDRICAL_SURFACE('',#402,3.);
#114=CYLINDRICAL_SURFACE('',#405,3.);
#115=CYLINDRICAL_SURFACE('',#416,36.15);
#116=CYLINDRICAL_SURFACE('',#423,40.003391);
#117=FACE_OUTER_BOUND('',#125,.T.);
#118=FACE_OUTER_BOUND('',#128,.T.);
#119=FACE_OUTER_BOUND('',#133,.T.);
#120=FACE_OUTER_BOUND('',#134,.T.);
#121=FACE_OUTER_BOUND('',#135,.T.);
#122=FACE_OUTER_BOUND('',#136,.T.);
#123=FACE_OUTER_BOUND('',#137,.T.);
#124=FACE_OUTER_BOUND('',#138,.T.);
#125=EDGE_LOOP('',(#185,#186,#187,#188));
#126=EDGE_LOOP('',(#189,#190,#191,#192,#193,#194,#195,#196));
#127=EDGE_LOOP('',(#197));
#128=EDGE_LOOP('',(#198,#199,#200,#201));
#129=EDGE_LOOP('',(#202,#203,#204,#205,#206,#207,#208,#209));
#130=EDGE_LOOP('',(#210));
#131=EDGE_LOOP('',(#211));
#132=EDGE_LOOP('',(#212));
#133=EDGE_LOOP('',(#213,#214,#215,#216));
#134=EDGE_LOOP('',(#217,#218,#219,#220));
#135=EDGE_LOOP('',(#221,#222,#223,#224));
#136=EDGE_LOOP('',(#225,#226,#227,#228));
#137=EDGE_LOOP('',(#229,#230,#231,#232));
#138=EDGE_LOOP('',(#233,#234,#235,#236));
#139=EDGE_LOOP('',(#237));
#140=EDGE_LOOP('',(#238));
#141=EDGE_LOOP('',(#239));
#142=EDGE_LOOP('',(#240));
#143=EDGE_LOOP('',(#241));
#144=EDGE_LOOP('',(#242));
#145=EDGE_LOOP('',(#243));
#146=EDGE_LOOP('',(#244));
#147=EDGE_LOOP('',(#245));
#148=EDGE_LOOP('',(#246));
#149=EDGE_LOOP('',(#247));
#150=EDGE_LOOP('',(#248));
#151=EDGE_LOOP('',(#249));
#152=EDGE_LOOP('',(#250));
#153=EDGE_LOOP('',(#251));
#154=EDGE_LOOP('',(#252));
#155=EDGE_LOOP('',(#253));
#156=EDGE_LOOP('',(#254));
#157=EDGE_LOOP('',(#255));
#158=EDGE_LOOP('',(#256));
#159=EDGE_LOOP('',(#257));
#160=EDGE_LOOP('',(#258));
#161=EDGE_LOOP('',(#259));
#162=EDGE_LOOP('',(#260));
#163=CIRCLE('',#387,11.);
#164=CIRCLE('',#388,11.);
#165=CIRCLE('',#390,3.);
#166=CIRCLE('',#391,11.);
#167=CIRCLE('',#392,3.);
#168=CIRCLE('',#393,39.4);
#169=CIRCLE('',#395,11.);
#170=CIRCLE('',#397,3.);
#171=CIRCLE('',#398,3.);
#172=CIRCLE('',#399,39.4);
#173=CIRCLE('',#408,39.8057248357167);
#174=CIRCLE('',#409,39.777886);
#175=CIRCLE('',#411,39.8056309613767);
#176=CIRCLE('',#412,39.777886);
#177=CIRCLE('',#414,36.15);
#178=CIRCLE('',#415,36.15);
#179=CIRCLE('',#417,36.717974);
#180=CIRCLE('',#419,37.055651);
#181=CIRCLE('',#421,40.003391);
#182=CIRCLE('',#422,40.003391);
#183=CIRCLE('',#424,37.055651);
#184=CIRCLE('',#426,36.717974);
#185=ORIENTED_EDGE('',*,*,#291,.T.);
#186=ORIENTED_EDGE('',*,*,#292,.F.);
#187=ORIENTED_EDGE('',*,*,#293,.F.);
#188=ORIENTED_EDGE('',*,*,#294,.T.);
#189=ORIENTED_EDGE('',*,*,#295,.F.);
#190=ORIENTED_EDGE('',*,*,#296,.F.);
#191=ORIENTED_EDGE('',*,*,#297,.F.);
#192=ORIENTED_EDGE('',*,*,#298,.T.);
#193=ORIENTED_EDGE('',*,*,#299,.F.);
#194=ORIENTED_EDGE('',*,*,#300,.F.);
#195=ORIENTED_EDGE('',*,*,#301,.F.);
#196=ORIENTED_EDGE('',*,*,#292,.T.);
#197=ORIENTED_EDGE('',*,*,#302,.F.);
#198=ORIENTED_EDGE('',*,*,#303,.F.);
#199=ORIENTED_EDGE('',*,*,#304,.T.);
#200=ORIENTED_EDGE('',*,*,#305,.T.);
#201=ORIENTED_EDGE('',*,*,#298,.F.);
#202=ORIENTED_EDGE('',*,*,#306,.F.);
#203=ORIENTED_EDGE('',*,*,#294,.F.);
#204=ORIENTED_EDGE('',*,*,#307,.F.);
#205=ORIENTED_EDGE('',*,*,#308,.F.);
#206=ORIENTED_EDGE('',*,*,#309,.F.);
#207=ORIENTED_EDGE('',*,*,#304,.F.);
#208=ORIENTED_EDGE('',*,*,#310,.F.);
#209=ORIENTED_EDGE('',*,*,#311,.F.);
#210=ORIENTED_EDGE('',*,*,#312,.T.);
#211=ORIENTED_EDGE('',*,*,#302,.T.);
#212=ORIENTED_EDGE('',*,*,#312,.F.);
#213=ORIENTED_EDGE('',*,*,#300,.T.);
#214=ORIENTED_EDGE('',*,*,#313,.F.);
#215=ORIENTED_EDGE('',*,*,#308,.T.);
#216=ORIENTED_EDGE('',*,*,#314,.T.);
#217=ORIENTED_EDGE('',*,*,#299,.T.);
#218=ORIENTED_EDGE('',*,*,#305,.F.);
#219=ORIENTED_EDGE('',*,*,#309,.T.);
#220=ORIENTED_EDGE('',*,*,#313,.T.);
#221=ORIENTED_EDGE('',*,*,#301,.T.);
#222=ORIENTED_EDGE('',*,*,#314,.F.);
#223=ORIENTED_EDGE('',*,*,#307,.T.);
#224=ORIENTED_EDGE('',*,*,#293,.T.);
#225=ORIENTED_EDGE('',*,*,#296,.T.);
#226=ORIENTED_EDGE('',*,*,#315,.F.);
#227=ORIENTED_EDGE('',*,*,#311,.T.);
#228=ORIENTED_EDGE('',*,*,#316,.T.);
#229=ORIENTED_EDGE('',*,*,#295,.T.);
#230=ORIENTED_EDGE('',*,*,#291,.F.);
#231=ORIENTED_EDGE('',*,*,#306,.T.);
#232=ORIENTED_EDGE('',*,*,#315,.T.);
#233=ORIENTED_EDGE('',*,*,#297,.T.);
#234=ORIENTED_EDGE('',*,*,#316,.F.);
#235=ORIENTED_EDGE('',*,*,#310,.T.);
#236=ORIENTED_EDGE('',*,*,#303,.T.);
#237=ORIENTED_EDGE('',*,*,#317,.T.);
#238=ORIENTED_EDGE('',*,*,#318,.F.);
#239=ORIENTED_EDGE('',*,*,#319,.T.);
#240=ORIENTED_EDGE('',*,*,#320,.T.);
#241=ORIENTED_EDGE('',*,*,#321,.F.);
#242=ORIENTED_EDGE('',*,*,#322,.T.);
#243=ORIENTED_EDGE('',*,*,#323,.F.);
#244=ORIENTED_EDGE('',*,*,#321,.T.);
#245=ORIENTED_EDGE('',*,*,#324,.F.);
#246=ORIENTED_EDGE('',*,*,#323,.T.);
#247=ORIENTED_EDGE('',*,*,#320,.F.);
#248=ORIENTED_EDGE('',*,*,#324,.T.);
#249=ORIENTED_EDGE('',*,*,#325,.T.);
#250=ORIENTED_EDGE('',*,*,#326,.T.);
#251=ORIENTED_EDGE('',*,*,#327,.F.);
#252=ORIENTED_EDGE('',*,*,#318,.T.);
#253=ORIENTED_EDGE('',*,*,#328,.F.);
#254=ORIENTED_EDGE('',*,*,#327,.T.);
#255=ORIENTED_EDGE('',*,*,#322,.F.);
#256=ORIENTED_EDGE('',*,*,#328,.T.);
#257=ORIENTED_EDGE('',*,*,#325,.F.);
#258=ORIENTED_EDGE('',*,*,#319,.F.);
#259=ORIENTED_EDGE('',*,*,#326,.F.);
#260=ORIENTED_EDGE('',*,*,#317,.F.);
#261=VERTEX_POINT('',#549);
#262=VERTEX_POINT('',#550);
#263=VERTEX_POINT('',#552);
#264=VERTEX_POINT('',#554);
#265=VERTEX_POINT('',#558);
#266=VERTEX_POINT('',#560);
#267=VERTEX_POINT('',#562);
#268=VERTEX_POINT('',#564);
#269=VERTEX_POINT('',#566);
#270=VERTEX_POINT('',#568);
#271=VERTEX_POINT('',#571);
#272=VERTEX_POINT('',#574);
#273=VERTEX_POINT('',#576);
#274=VERTEX_POINT('',#580);
#275=VERTEX_POINT('',#582);
#276=VERTEX_POINT('',#584);
#277=VERTEX_POINT('',#587);
#278=VERTEX_POINT('',#590);
#279=VERTEX_POINT('',#604);
#280=VERTEX_POINT('',#606);
#281=VERTEX_POINT('',#609);
#282=VERTEX_POINT('',#611);
#283=VERTEX_POINT('',#614);
#284=VERTEX_POINT('',#616);
#285=VERTEX_POINT('',#619);
#286=VERTEX_POINT('',#622);
#287=VERTEX_POINT('',#640);
#288=VERTEX_POINT('',#642);
#289=VERTEX_POINT('',#645);
#290=VERTEX_POINT('',#648);
#291=EDGE_CURVE('',#261,#262,#329,.T.);
#292=EDGE_CURVE('',#263,#262,#163,.T.);
#293=EDGE_CURVE('',#264,#263,#330,.T.);
#294=EDGE_CURVE('',#264,#261,#164,.T.);
#295=EDGE_CURVE('',#265,#262,#331,.T.);
#296=EDGE_CURVE('',#266,#265,#165,.T.);
#297=EDGE_CURVE('',#267,#266,#332,.T.);
#298=EDGE_CURVE('',#267,#268,#166,.T.);
#299=EDGE_CURVE('',#269,#268,#333,.T.);
#300=EDGE_CURVE('',#270,#269,#167,.T.);
#301=EDGE_CURVE('',#263,#270,#334,.T.);
#302=EDGE_CURVE('',#271,#271,#168,.T.);
#303=EDGE_CURVE('',#272,#267,#335,.T.);
#304=EDGE_CURVE('',#272,#273,#169,.T.);
#305=EDGE_CURVE('',#273,#268,#336,.T.);
#306=EDGE_CURVE('',#261,#274,#337,.T.);
#307=EDGE_CURVE('',#275,#264,#338,.T.);
#308=EDGE_CURVE('',#276,#275,#170,.T.);
#309=EDGE_CURVE('',#273,#276,#339,.T.);
#310=EDGE_CURVE('',#277,#272,#340,.T.);
#311=EDGE_CURVE('',#274,#277,#171,.T.);
#312=EDGE_CURVE('',#278,#278,#172,.T.);
#313=EDGE_CURVE('',#276,#269,#341,.T.);
#314=EDGE_CURVE('',#275,#270,#342,.T.);
#315=EDGE_CURVE('',#274,#265,#343,.T.);
#316=EDGE_CURVE('',#277,#266,#344,.T.);
#317=EDGE_CURVE('',#279,#279,#173,.T.);
#318=EDGE_CURVE('',#280,#280,#174,.T.);
#319=EDGE_CURVE('',#281,#281,#175,.T.);
#320=EDGE_CURVE('',#282,#282,#176,.T.);
#321=EDGE_CURVE('',#283,#283,#177,.T.);
#322=EDGE_CURVE('',#284,#284,#178,.T.);
#323=EDGE_CURVE('',#285,#285,#179,.T.);
#324=EDGE_CURVE('',#286,#286,#180,.T.);
#325=EDGE_CURVE('',#287,#287,#181,.T.);
#326=EDGE_CURVE('',#288,#288,#182,.T.);
#327=EDGE_CURVE('',#289,#289,#183,.T.);
#328=EDGE_CURVE('',#290,#290,#184,.T.);
#329=LINE('',#548,#345);
#330=LINE('',#553,#346);
#331=LINE('',#557,#347);
#332=LINE('',#561,#348);
#333=LINE('',#565,#349);
#334=LINE('',#569,#350);
#335=LINE('',#573,#351);
#336=LINE('',#577,#352);
#337=LINE('',#579,#353);
#338=LINE('',#581,#354);
#339=LINE('',#585,#355);
#340=LINE('',#586,#356);
#341=LINE('',#593,#357);
#342=LINE('',#594,#358);
#343=LINE('',#598,#359);
#344=LINE('',#599,#360);
#345=VECTOR('',#439,1.);
#346=VECTOR('',#442,1.);
#347=VECTOR('',#447,1.);
#348=VECTOR('',#450,1.);
#349=VECTOR('',#453,1.);
#350=VECTOR('',#456,1.);
#351=VECTOR('',#461,1.);
#352=VECTOR('',#464,1.);
#353=VECTOR('',#467,1.);
#354=VECTOR('',#468,1.);
#355=VECTOR('',#471,1.);
#356=VECTOR('',#472,1.);
#357=VECTOR('',#481,1.);
#358=VECTOR('',#482,1.);
#359=VECTOR('',#489,1.);
#360=VECTOR('',#490,1.);
#361=PRESENTATION_LAYER_ASSIGNMENT('1','Layer 1',(#384,#385,#386));
#362=PRESENTATION_LAYER_ASSIGNMENT('2','Layer 2',(#47));
#363=PRESENTATION_LAYER_ASSIGNMENT('3','Layer 3',(#48));
#364=STYLED_ITEM('',(#369),#384);
#365=STYLED_ITEM('',(#370),#385);
#366=STYLED_ITEM('',(#371),#386);
#367=STYLED_ITEM('',(#372),#47);
#368=STYLED_ITEM('',(#373),#48);
#369=PRESENTATION_STYLE_ASSIGNMENT((#374));
#370=PRESENTATION_STYLE_ASSIGNMENT((#375));
#371=PRESENTATION_STYLE_ASSIGNMENT((#376));
#372=PRESENTATION_STYLE_ASSIGNMENT((#37));
#373=PRESENTATION_STYLE_ASSIGNMENT((#38));
#374=CURVE_STYLE('',#380,POSITIVE_LENGTH_MEASURE(0.18),#377);
#375=CURVE_STYLE('',#381,POSITIVE_LENGTH_MEASURE(0.18),#377);
#376=CURVE_STYLE('',#382,POSITIVE_LENGTH_MEASURE(0.18),#377);
#377=COLOUR_RGB('Medium Maroon',0.6,0.4,0.4);
#378=COLOUR_RGB('Medium Gray',0.490196078431373,0.490196078431373,0.490196078431373);
#379=COLOUR_RGB('Light Gray',0.8,0.8,0.8);
#380=DRAUGHTING_PRE_DEFINED_CURVE_FONT('continuous');
#381=DRAUGHTING_PRE_DEFINED_CURVE_FONT('continuous');
#382=DRAUGHTING_PRE_DEFINED_CURVE_FONT('continuous');
#383=AXIS2_PLACEMENT_3D('',#544,#431,#432);
#384=AXIS2_PLACEMENT_3D('PCS',#545,#433,#434);
#385=AXIS2_PLACEMENT_3D('MCS',#546,#435,#436);
#386=AXIS2_PLACEMENT_3D('CIP',#547,#437,#438);
#387=AXIS2_PLACEMENT_3D('',#551,#440,#441);
#388=AXIS2_PLACEMENT_3D('',#555,#443,#444);
#389=AXIS2_PLACEMENT_3D('',#556,#445,#446);
#390=AXIS2_PLACEMENT_3D('',#559,#448,#449);
#391=AXIS2_PLACEMENT_3D('',#563,#451,#452);
#392=AXIS2_PLACEMENT_3D('',#567,#454,#455);
#393=AXIS2_PLACEMENT_3D('',#570,#457,#458);
#394=AXIS2_PLACEMENT_3D('',#572,#459,#460);
#395=AXIS2_PLACEMENT_3D('',#575,#462,#463);
#396=AXIS2_PLACEMENT_3D('',#578,#465,#466);
#397=AXIS2_PLACEMENT_3D('',#583,#469,#470);
#398=AXIS2_PLACEMENT_3D('',#588,#473,#474);
#399=AXIS2_PLACEMENT_3D('',#589,#475,#476);
#400=AXIS2_PLACEMENT_3D('',#591,#477,#478);
#401=AXIS2_PLACEMENT_3D('',#592,#479,#480);
#402=AXIS2_PLACEMENT_3D('',#595,#483,#484);
#403=AXIS2_PLACEMENT_3D('',#596,#485,#486);
#404=AXIS2_PLACEMENT_3D('',#597,#487,#488);
#405=AXIS2_PLACEMENT_3D('',#600,#491,#492);
#406=AXIS2_PLACEMENT_3D('',#601,#493,#494);
#407=AXIS2_PLACEMENT_3D('',#602,#495,#496);
#408=AXIS2_PLACEMENT_3D('',#603,#497,#498);
#409=AXIS2_PLACEMENT_3D('',#605,#499,#500);
#410=AXIS2_PLACEMENT_3D('',#607,#501,#502);
#411=AXIS2_PLACEMENT_3D('',#608,#503,#504);
#412=AXIS2_PLACEMENT_3D('',#610,#505,#506);
#413=AXIS2_PLACEMENT_3D('',#612,#507,#508);
#414=AXIS2_PLACEMENT_3D('',#613,#509,#510);
#415=AXIS2_PLACEMENT_3D('',#615,#511,#512);
#416=AXIS2_PLACEMENT_3D('',#617,#513,#514);
#417=AXIS2_PLACEMENT_3D('',#618,#515,#516);
#418=AXIS2_PLACEMENT_3D('',#620,#517,#518);
#419=AXIS2_PLACEMENT_3D('',#621,#519,#520);
#420=AXIS2_PLACEMENT_3D('',#638,#522,#523);
#421=AXIS2_PLACEMENT_3D('',#639,#524,#525);
#422=AXIS2_PLACEMENT_3D('',#641,#526,#527);
#423=AXIS2_PLACEMENT_3D('',#643,#528,#529);
#424=AXIS2_PLACEMENT_3D('',#644,#530,#531);
#425=AXIS2_PLACEMENT_3D('',#646,#532,#533);
#426=AXIS2_PLACEMENT_3D('',#647,#534,#535);
#427=AXIS2_PLACEMENT_3D('',#649,#536,#537);
#428=AXIS2_PLACEMENT_3D('',#650,#538,#539);
#429=AXIS2_PLACEMENT_3D('',#651,#540,#541);
#430=AXIS2_PLACEMENT_3D('',#652,#542,#543);
#431=DIRECTION('',(0.,0.,1.));
#432=DIRECTION('',(1.,0.,0.));
#433=DIRECTION('',(0.,0.,1.));
#434=DIRECTION('',(1.,0.,0.));
#435=DIRECTION('',(0.,0.,1.));
#436=DIRECTION('',(1.,0.,0.));
#437=DIRECTION('',(0.,0.,1.));
#438=DIRECTION('',(1.,0.,0.));
#439=DIRECTION('',(0.,0.,1.));
#440=DIRECTION('',(0.,0.,-1.));
#441=DIRECTION('',(-1.,0.,0.));
#442=DIRECTION('',(0.,0.,1.));
#443=DIRECTION('',(0.,0.,-1.));
#444=DIRECTION('',(-1.,0.,0.));
#445=DIRECTION('',(0.,0.,-1.));
#446=DIRECTION('',(1.,0.,0.));
#447=DIRECTION('',(0.866025403784439,0.5,0.));
#448=DIRECTION('',(0.,0.,1.));
#449=DIRECTION('',(1.,0.,0.));
#450=DIRECTION('',(-0.866025403784439,-0.5,0.));
#451=DIRECTION('',(0.,0.,-1.));
#452=DIRECTION('',(-1.,0.,0.));
#453=DIRECTION('',(-1.,0.,0.));
#454=DIRECTION('',(0.,0.,1.));
#455=DIRECTION('',(1.,0.,0.));
#456=DIRECTION('',(1.,0.,0.));
#457=DIRECTION('',(0.,0.,-1.));
#458=DIRECTION('',(-1.,0.,0.));
#459=DIRECTION('',(0.,0.,1.));
#460=DIRECTION('',(-1.,0.,0.));
#461=DIRECTION('',(0.,0.,1.));
#462=DIRECTION('',(0.,0.,-1.));
#463=DIRECTION('',(-1.,0.,0.));
#464=DIRECTION('',(0.,0.,1.));
#465=DIRECTION('',(0.,0.,-1.));
#466=DIRECTION('',(1.,0.,0.));
#467=DIRECTION('',(-0.866025403784439,-0.5,0.));
#468=DIRECTION('',(-1.,0.,0.));
#469=DIRECTION('',(0.,0.,-1.));
#470=DIRECTION('',(-1.,0.,0.));
#471=DIRECTION('',(1.,0.,0.));
#472=DIRECTION('',(0.866025403784439,0.5,0.));
#473=DIRECTION('',(0.,0.,-1.));
#474=DIRECTION('',(-1.,0.,0.));
#475=DIRECTION('',(0.,0.,-1.));
#476=DIRECTION('',(-1.,0.,0.));
#477=DIRECTION('',(0.,0.,-1.));
#478=DIRECTION('',(1.,0.,0.));
#479=DIRECTION('',(0.,0.,-1.));
#480=DIRECTION('',(1.,0.,0.));
#481=DIRECTION('',(0.,0.,1.));
#482=DIRECTION('',(0.,0.,1.));
#483=DIRECTION('',(0.,0.,1.));
#484=DIRECTION('',(-1.,0.,0.));
#485=DIRECTION('',(0.,1.,0.));
#486=DIRECTION('',(0.,0.,-1.));
#487=DIRECTION('',(0.,-1.,0.));
#488=DIRECTION('',(0.,0.,1.));
#489=DIRECTION('',(0.,0.,1.));
#490=DIRECTION('',(0.,0.,1.));
#491=DIRECTION('',(0.,0.,1.));
#492=DIRECTION('',(0.866025403784439,0.5,0.));
#493=DIRECTION('',(0.5,-0.866025403784439,0.));
#494=DIRECTION('',(0.,0.,-1.));
#495=DIRECTION('',(-0.5,0.866025403784439,0.));
#496=DIRECTION('',(0.,0.,1.));
#497=DIRECTION('',(0.,0.,-1.));
#498=DIRECTION('',(-1.,0.,0.));
#499=DIRECTION('',(0.,0.,-1.));
#500=DIRECTION('',(-1.,0.,0.));
#501=DIRECTION('',(0.,0.,1.));
#502=DIRECTION('',(-1.,0.,-6.01984561831487E-19));
#503=DIRECTION('',(0.,0.,1.));
#504=DIRECTION('',(1.,0.,0.));
#505=DIRECTION('',(0.,0.,-1.));
#506=DIRECTION('',(-1.,0.,0.));
#507=DIRECTION('',(0.,0.,-1.));
#508=DIRECTION('',(1.,0.,-7.3436162224868E-20));
#509=DIRECTION('',(0.,0.,-1.));
#510=DIRECTION('',(-1.,0.,0.));
#511=DIRECTION('',(0.,0.,-1.));
#512=DIRECTION('',(-1.,0.,0.));
#513=DIRECTION('',(0.,0.,-1.));
#514=DIRECTION('',(1.,0.,0.));
#515=DIRECTION('',(0.,0.,-1.));
#516=DIRECTION('',(-1.,0.,0.));
#517=DIRECTION('',(0.,0.,1.));
#518=DIRECTION('',(-1.,0.,3.2433403634928E-18));
#519=DIRECTION('',(0.,0.,-1.));
#520=DIRECTION('',(-1.,0.,0.));
#521=DIRECTION('',(0.,0.,-1.));
#522=DIRECTION('',(0.,0.,1.));
#523=DIRECTION('',(-1.,0.,7.10442103555114E-18));
#524=DIRECTION('',(0.,0.,-1.));
#525=DIRECTION('',(-1.,0.,0.));
#526=DIRECTION('',(0.,0.,1.));
#527=DIRECTION('',(1.,0.,0.));
#528=DIRECTION('',(0.,0.,-1.));
#529=DIRECTION('',(1.,0.,0.));
#530=DIRECTION('',(0.,0.,-1.));
#531=DIRECTION('',(-1.,0.,0.));
#532=DIRECTION('',(0.,0.,-1.));
#533=DIRECTION('',(1.,0.,3.35685380216843E-18));
#534=DIRECTION('',(0.,0.,-1.));
#535=DIRECTION('',(-1.,0.,0.));
#536=DIRECTION('',(0.,0.,-1.));
#537=DIRECTION('',(1.,0.,3.47836817987102E-18));
#538=DIRECTION('',(0.,0.,-1.));
#539=DIRECTION('',(1.,0.,-3.87181458782486E-18));
#540=DIRECTION('',(0.,0.,-1.));
#541=DIRECTION('',(1.,0.,0.));
#542=DIRECTION('',(0.,0.,1.));
#543=DIRECTION('',(-1.,0.,0.));
#544=CARTESIAN_POINT('',(0.,0.,0.));
#545=CARTESIAN_POINT('',(0.,0.,0.));
#546=CARTESIAN_POINT('',(0.,0.,0.));
#547=CARTESIAN_POINT('',(0.,0.,-3.755687));
#548=CARTESIAN_POINT('',(-7.66515138991168,-7.8895788334825,-10.5));
#549=CARTESIAN_POINT('',(-7.66515138991168,-7.8895788334825,-3.4));
#550=CARTESIAN_POINT('',(-7.66515138991168,-7.8895788334825,-4.33680868994202E-16));
#551=CARTESIAN_POINT('',(0.,0.,0.));
#552=CARTESIAN_POINT('',(10.5830052442492,-3.00000000003237,0.));
#553=CARTESIAN_POINT('',(10.5830052442492,-3.00000000003237,-10.5));
#554=CARTESIAN_POINT('',(10.5830052442492,-3.00000000003237,-3.4));
#555=CARTESIAN_POINT('',(0.,0.,-3.4));
#556=CARTESIAN_POINT('',(0.,0.,3.5));
#557=CARTESIAN_POINT('',(-28.05,-19.6587766659068,0.));
#558=CARTESIAN_POINT('',(-8.97890738579171,-8.64807621135332,-4.33680868994202E-16));
#559=CARTESIAN_POINT('',(-10.4789073857917,-6.05,-4.33680868994202E-16));
#560=CARTESIAN_POINT('',(-11.9789073857917,-3.45192378864669,-4.33680868994202E-16));
#561=CARTESIAN_POINT('',(-31.05,-14.4626242432001,0.));
#562=CARTESIAN_POINT('',(-10.6651513899199,-2.69342641074324,0.));
#563=CARTESIAN_POINT('',(0.,0.,0.));
#564=CARTESIAN_POINT('',(10.5830052442584,3.,-4.33680868994202E-16));
#565=CARTESIAN_POINT('',(-39.4,3.,0.));
#566=CARTESIAN_POINT('',(12.1,3.,-4.33680868994202E-16));
#567=CARTESIAN_POINT('',(12.1,1.62908973318427E-15,-4.33680868994202E-16));
#568=CARTESIAN_POINT('',(12.1,-3.,-4.33680868994202E-16));
#569=CARTESIAN_POINT('',(-39.4,-3.,0.));
#570=CARTESIAN_POINT('',(0.,0.,0.));
#571=CARTESIAN_POINT('',(-39.4,0.,0.));
#572=CARTESIAN_POINT('',(-39.4,0.,0.));
#573=CARTESIAN_POINT('',(-10.6651513899199,-2.69342641074324,-10.5));
#574=CARTESIAN_POINT('',(-10.6651513899199,-2.69342641074324,-3.4));
#575=CARTESIAN_POINT('',(0.,0.,-3.4));
#576=CARTESIAN_POINT('',(10.5830052442584,3.,-3.4));
#577=CARTESIAN_POINT('',(10.5830052442584,3.,-10.5));
#578=CARTESIAN_POINT('',(0.,0.,3.5));
#579=CARTESIAN_POINT('',(-6.75,-7.36121593216773,-3.4));
#580=CARTESIAN_POINT('',(-8.97890738579171,-8.64807621135332,-3.4));
#581=CARTESIAN_POINT('',(-11.,-3.,-3.4));
#582=CARTESIAN_POINT('',(12.1,-3.,-3.4));
#583=CARTESIAN_POINT('',(12.1,1.62908973318427E-15,-3.4));
#584=CARTESIAN_POINT('',(12.1,3.,-3.4));
#585=CARTESIAN_POINT('',(-11.,3.,-3.4));
#586=CARTESIAN_POINT('',(-9.75,-2.1650635094611,-3.4));
#587=CARTESIAN_POINT('',(-11.9789073857917,-3.45192378864669,-3.4));
#588=CARTESIAN_POINT('',(-10.4789073857917,-6.05,-3.4));
#589=CARTESIAN_POINT('',(0.,0.,-3.4));
#590=CARTESIAN_POINT('',(-39.4,0.,-3.4));
#591=CARTESIAN_POINT('',(-11.,0.,-3.4));
#592=CARTESIAN_POINT('',(0.,0.,3.5));
#593=CARTESIAN_POINT('',(12.1,3.,-10.5));
#594=CARTESIAN_POINT('',(12.1,-3.,-10.5));
#595=CARTESIAN_POINT('',(12.1,1.62908973318427E-15,-10.5));
#596=CARTESIAN_POINT('',(12.1,3.,-10.5));
#597=CARTESIAN_POINT('',(10.5830052442584,-3.,-10.5));
#598=CARTESIAN_POINT('',(-8.97890738579171,-8.64807621135332,-10.5));
#599=CARTESIAN_POINT('',(-11.9789073857917,-3.45192378864669,-10.5));
#600=CARTESIAN_POINT('',(-10.4789073857917,-6.05,-10.5));
#601=CARTESIAN_POINT('',(-8.97890738579171,-8.64807621135332,-10.5));
#602=CARTESIAN_POINT('',(-10.6651513899117,-2.69342641077587,-10.5));
#603=CARTESIAN_POINT('',(0.,0.,-3.75536212153441));
#604=CARTESIAN_POINT('',(-39.8057248357167,0.,-3.75536212153441));
#605=CARTESIAN_POINT('',(0.,0.,-3.755687));
#606=CARTESIAN_POINT('',(-39.777886,0.,-3.755687));
#607=CARTESIAN_POINT('',(0.,0.,-3.755287));
#608=CARTESIAN_POINT('',(0.,0.,0.355376242299931));
#609=CARTESIAN_POINT('',(39.8056309613767,0.,0.355376242299931));
#610=CARTESIAN_POINT('',(0.,0.,0.355687));
#611=CARTESIAN_POINT('',(-39.777886,0.,0.355687));
#612=CARTESIAN_POINT('',(0.,0.,0.355687));
#613=CARTESIAN_POINT('',(0.,0.,0.102));
#614=CARTESIAN_POINT('',(-36.15,0.,0.102));
#615=CARTESIAN_POINT('',(0.,0.,-3.502));
#616=CARTESIAN_POINT('',(-36.15,0.,-3.502));
#617=CARTESIAN_POINT('',(0.,0.,0.));
#618=CARTESIAN_POINT('',(0.,0.,0.141717000000001));
#619=CARTESIAN_POINT('',(-36.717974,0.,0.141717000000001));
#620=CARTESIAN_POINT('',(0.,0.,0.102));
#621=CARTESIAN_POINT('',(0.,0.,0.165329000000001));
#622=CARTESIAN_POINT('',(-37.055651,0.,0.165329000000001));
#623=CARTESIAN_POINT('',(-36.717974,0.,0.141717000000001));
#624=CARTESIAN_POINT('',(-36.7377256666667,0.,0.143096000000001));
#625=CARTESIAN_POINT('',(-36.7574775031802,0.,0.144472569404977));
#626=CARTESIAN_POINT('',(-36.796798,0.,0.147222666666668));
#627=CARTESIAN_POINT('',(-36.8163670699414,0.,0.148590333687998));
#628=CARTESIAN_POINT('',(-36.855243,0.,0.151311333333334));
#629=CARTESIAN_POINT('',(-36.8745499530462,0.,0.152663337680472));
#630=CARTESIAN_POINT('',(-36.9127543333333,0.,0.155336000000001));
#631=CARTESIAN_POINT('',(-36.9316516240878,0.,0.15665860878505));
#632=CARTESIAN_POINT('',(-36.9684063333333,0.,0.159228666666667));
#633=CARTESIAN_POINT('',(-36.9862636615066,0.,0.160477407129989));
#634=CARTESIAN_POINT('',(-37.0212976666667,0.,0.162927));
#635=CARTESIAN_POINT('',(-37.0384743333333,0.,0.164128000000001));
#636=CARTESIAN_POINT('',(-37.055651,0.,0.165329000000001));
#637=CARTESIAN_POINT('',(0.,0.,0.));
#638=CARTESIAN_POINT('',(0.,0.,0.165329000000001));
#639=CARTESIAN_POINT('',(0.,0.,0.155388786260731));
#640=CARTESIAN_POINT('',(-40.003391,0.,0.155388786260731));
#641=CARTESIAN_POINT('',(0.,0.,-3.55537573897087));
#642=CARTESIAN_POINT('',(40.003391,0.,-3.55537573897087));
#643=CARTESIAN_POINT('',(0.,0.,0.));
#644=CARTESIAN_POINT('',(0.,0.,-3.565329));
#645=CARTESIAN_POINT('',(-37.055651,0.,-3.565329));
#646=CARTESIAN_POINT('',(0.,0.,-3.755687));
#647=CARTESIAN_POINT('',(0.,0.,-3.541717));
#648=CARTESIAN_POINT('',(-36.717974,0.,-3.541717));
#649=CARTESIAN_POINT('',(0.,0.,-3.565329));
#650=CARTESIAN_POINT('',(0.,0.,-3.541717));
#651=CARTESIAN_POINT('',(0.,0.,0.155388786260731));
#652=CARTESIAN_POINT('',(0.,0.,-3.55537573897087));
#653=MECHANICAL_DESIGN_GEOMETRIC_PRESENTATION_REPRESENTATION('',(#364,#365,
#366,#367,#368),#654);
#654=(
GEOMETRIC_REPRESENTATION_CONTEXT(3)
GLOBAL_UNCERTAINTY_ASSIGNED_CONTEXT((#655))
GLOBAL_UNIT_ASSIGNED_CONTEXT((#661,#657,#656))
REPRESENTATION_CONTEXT('335.10-080-04','TOP_LEVEL_ASSEMBLY_PART')
);
#655=UNCERTAINTY_MEASURE_WITH_UNIT(LENGTH_MEASURE(2.E-5),#661,
'DISTANCE_ACCURACY_VALUE','Maximum Tolerance applied to model');
#656=(
NAMED_UNIT(*)
SI_UNIT($,.STERADIAN.)
SOLID_ANGLE_UNIT()
);
#657=(
CONVERSION_BASED_UNIT('DEGREE',#659)
NAMED_UNIT(#658)
PLANE_ANGLE_UNIT()
);
#658=DIMENSIONAL_EXPONENTS(0.,0.,0.,0.,0.,0.,0.);
#659=PLANE_ANGLE_MEASURE_WITH_UNIT(PLANE_ANGLE_MEASURE(0.0174532925),#660);
#660=(
NAMED_UNIT(*)
PLANE_ANGLE_UNIT()
SI_UNIT($,.RADIAN.)
);
#661=(
LENGTH_UNIT()
NAMED_UNIT(*)
SI_UNIT(.MILLI.,.METRE.)
);
ENDSEC;
END-ISO-10303-21;
