ISO-10303-21;
HEADER;
/* Generated by software containing ST-Developer
 * from STEP Tools, Inc. (www.steptools.com) 
 */
/* OPTION: using custom schema-name function */

FILE_DESCRIPTION(
/* description */ (''),
/* implementation_level */ '2;1');

FILE_NAME(
/* name */ '335.10-080-03.22-6.stp',
/* time_stamp */ '2017-09-14T10:21:10+06:00',
/* author */ (''),
/* organization */ (''),
/* preprocessor_version */ 'ST-DEVELOPER v16',
/* originating_system */ 'SIEMENS PLM Software NX 11.0',
/* authorisation */ '');

FILE_SCHEMA (('AUTOMOTIVE_DESIGN { 1 0 10303 214 3 1 1 1 }'));
ENDSEC;

DATA;
#10=CONSTRUCTIVE_GEOMETRY_REPRESENTATION_RELATIONSHIP(
'supplemental geometry','',#24,#11);
#11=CONSTRUCTIVE_GEOMETRY_REPRESENTATION('supplemental geometry',(#382,
#383,#384),#640);
#12=SHAPE_REPRESENTATION_RELATIONSHIP('None',
'relationship between 335.10-080-03.22-6-None and 335.10-080-03.22-6-N
one',#24,#13);
#13=ADVANCED_BREP_SHAPE_REPRESENTATION('335.10-080-03.22-6-None',(#45,#46),
#640);
#14=SHAPE_DEFINITION_REPRESENTATION(#15,#24);
#15=PRODUCT_DEFINITION_SHAPE('','',#16);
#16=PRODUCT_DEFINITION(' ','',#18,#17);
#17=PRODUCT_DEFINITION_CONTEXT('part definition',#23,'design');
#18=PRODUCT_DEFINITION_FORMATION_WITH_SPECIFIED_SOURCE(' ',' ',#20,
 .NOT_KNOWN.);
#19=PRODUCT_RELATED_PRODUCT_CATEGORY('part','',(#20));
#20=PRODUCT('335.10-080-03.22-6','335.10-080-03.22-6',' ',(#21));
#21=PRODUCT_CONTEXT(' ',#23,'mechanical');
#22=APPLICATION_PROTOCOL_DEFINITION('international standard',
'automotive_design',2010,#23);
#23=APPLICATION_CONTEXT(
'core data for automotive mechanical design processes');
#24=SHAPE_REPRESENTATION('335.10-080-03.22-6-None',(#381),#640);
#25=TOROIDAL_SURFACE('',#428,39.803391,0.2);
#26=TOROIDAL_SURFACE('',#429,39.803391,0.2);
#27=CONICAL_SURFACE('',#411,39.812438,89.3582849180808);
#28=CONICAL_SURFACE('',#413,39.777886,85.999983556379);
#29=CONICAL_SURFACE('',#415,37.055651,86.0001141559961);
#30=CONICAL_SURFACE('',#417,36.717974,85.9999609583272);
#31=CONICAL_SURFACE('',#421,36.15,85.9999609583273);
#32=CONICAL_SURFACE('',#423,36.717974,86.000114155996);
#33=CONICAL_SURFACE('',#425,37.055651,85.999983556379);
#34=CONICAL_SURFACE('',#427,39.777886,89.3313901421276);
#35=SURFACE_STYLE_USAGE(.BOTH.,#37);
#36=SURFACE_STYLE_USAGE(.BOTH.,#38);
#37=SURFACE_SIDE_STYLE('',(#39));
#38=SURFACE_SIDE_STYLE('',(#40));
#39=SURFACE_STYLE_FILL_AREA(#41);
#40=SURFACE_STYLE_FILL_AREA(#42);
#41=FILL_AREA_STYLE('',(#43));
#42=FILL_AREA_STYLE('',(#44));
#43=FILL_AREA_STYLE_COLOUR('',#376);
#44=FILL_AREA_STYLE_COLOUR('',#377);
#45=MANIFOLD_SOLID_BREP('NOCUT',#47);
#46=MANIFOLD_SOLID_BREP('CUT',#48);
#47=CLOSED_SHELL('',(#85,#86,#87,#88,#89,#90,#91,#92,#93,#94,#95));
#48=CLOSED_SHELL('',(#96,#97,#98,#99,#100,#101,#102,#103,#104,#105,#106,
#107));
#49=PLANE('',#392);
#50=PLANE('',#398);
#51=PLANE('',#401);
#52=PLANE('',#402);
#53=PLANE('',#404);
#54=PLANE('',#405);
#55=FACE_BOUND('',#124,.T.);
#56=FACE_BOUND('',#125,.T.);
#57=FACE_BOUND('',#127,.T.);
#58=FACE_BOUND('',#128,.T.);
#59=FACE_BOUND('',#129,.T.);
#60=FACE_BOUND('',#130,.T.);
#61=FACE_BOUND('',#137,.T.);
#62=FACE_BOUND('',#138,.T.);
#63=FACE_BOUND('',#139,.T.);
#64=FACE_BOUND('',#140,.T.);
#65=FACE_BOUND('',#141,.T.);
#66=FACE_BOUND('',#142,.T.);
#67=FACE_BOUND('',#143,.T.);
#68=FACE_BOUND('',#144,.T.);
#69=FACE_BOUND('',#145,.T.);
#70=FACE_BOUND('',#146,.T.);
#71=FACE_BOUND('',#147,.T.);
#72=FACE_BOUND('',#148,.T.);
#73=FACE_BOUND('',#149,.T.);
#74=FACE_BOUND('',#150,.T.);
#75=FACE_BOUND('',#151,.T.);
#76=FACE_BOUND('',#152,.T.);
#77=FACE_BOUND('',#153,.T.);
#78=FACE_BOUND('',#154,.T.);
#79=FACE_BOUND('',#155,.T.);
#80=FACE_BOUND('',#156,.T.);
#81=FACE_BOUND('',#157,.T.);
#82=FACE_BOUND('',#158,.T.);
#83=FACE_BOUND('',#159,.T.);
#84=FACE_BOUND('',#160,.T.);
#85=ADVANCED_FACE('',(#115),#108,.F.);
#86=ADVANCED_FACE('',(#55,#56),#49,.T.);
#87=ADVANCED_FACE('',(#116),#109,.F.);
#88=ADVANCED_FACE('',(#57,#58),#50,.T.);
#89=ADVANCED_FACE('',(#59,#60),#110,.T.);
#90=ADVANCED_FACE('',(#117),#111,.F.);
#91=ADVANCED_FACE('',(#118),#51,.F.);
#92=ADVANCED_FACE('',(#119),#52,.F.);
#93=ADVANCED_FACE('',(#120),#112,.F.);
#94=ADVANCED_FACE('',(#121),#53,.F.);
#95=ADVANCED_FACE('',(#122),#54,.F.);
#96=ADVANCED_FACE('',(#61,#62),#113,.T.);
#97=ADVANCED_FACE('',(#63,#64),#27,.T.);
#98=ADVANCED_FACE('',(#65,#66),#28,.F.);
#99=ADVANCED_FACE('',(#67,#68),#29,.F.);
#100=ADVANCED_FACE('',(#69,#70),#30,.F.);
#101=ADVANCED_FACE('',(#71,#72),#114,.F.);
#102=ADVANCED_FACE('',(#73,#74),#31,.F.);
#103=ADVANCED_FACE('',(#75,#76),#32,.F.);
#104=ADVANCED_FACE('',(#77,#78),#33,.F.);
#105=ADVANCED_FACE('',(#79,#80),#34,.T.);
#106=ADVANCED_FACE('',(#81,#82),#25,.T.);
#107=ADVANCED_FACE('',(#83,#84),#26,.T.);
#108=CYLINDRICAL_SURFACE('',#387,11.);
#109=CYLINDRICAL_SURFACE('',#394,11.);
#110=CYLINDRICAL_SURFACE('',#399,39.4);
#111=CYLINDRICAL_SURFACE('',#400,3.);
#112=CYLINDRICAL_SURFACE('',#403,3.);
#113=CYLINDRICAL_SURFACE('',#408,40.003391);
#114=CYLINDRICAL_SURFACE('',#419,36.15);
#115=FACE_OUTER_BOUND('',#123,.T.);
#116=FACE_OUTER_BOUND('',#126,.T.);
#117=FACE_OUTER_BOUND('',#131,.T.);
#118=FACE_OUTER_BOUND('',#132,.T.);
#119=FACE_OUTER_BOUND('',#133,.T.);
#120=FACE_OUTER_BOUND('',#134,.T.);
#121=FACE_OUTER_BOUND('',#135,.T.);
#122=FACE_OUTER_BOUND('',#136,.T.);
#123=EDGE_LOOP('',(#183,#184,#185,#186));
#124=EDGE_LOOP('',(#187,#188,#189,#190,#191,#192,#193,#194));
#125=EDGE_LOOP('',(#195));
#126=EDGE_LOOP('',(#196,#197,#198,#199));
#127=EDGE_LOOP('',(#200,#201,#202,#203,#204,#205,#206,#207));
#128=EDGE_LOOP('',(#208));
#129=EDGE_LOOP('',(#209));
#130=EDGE_LOOP('',(#210));
#131=EDGE_LOOP('',(#211,#212,#213,#214));
#132=EDGE_LOOP('',(#215,#216,#217,#218));
#133=EDGE_LOOP('',(#219,#220,#221,#222));
#134=EDGE_LOOP('',(#223,#224,#225,#226));
#135=EDGE_LOOP('',(#227,#228,#229,#230));
#136=EDGE_LOOP('',(#231,#232,#233,#234));
#137=EDGE_LOOP('',(#235));
#138=EDGE_LOOP('',(#236));
#139=EDGE_LOOP('',(#237));
#140=EDGE_LOOP('',(#238));
#141=EDGE_LOOP('',(#239));
#142=EDGE_LOOP('',(#240));
#143=EDGE_LOOP('',(#241));
#144=EDGE_LOOP('',(#242));
#145=EDGE_LOOP('',(#243));
#146=EDGE_LOOP('',(#244));
#147=EDGE_LOOP('',(#245));
#148=EDGE_LOOP('',(#246));
#149=EDGE_LOOP('',(#247));
#150=EDGE_LOOP('',(#248));
#151=EDGE_LOOP('',(#249));
#152=EDGE_LOOP('',(#250));
#153=EDGE_LOOP('',(#251));
#154=EDGE_LOOP('',(#252));
#155=EDGE_LOOP('',(#253));
#156=EDGE_LOOP('',(#254));
#157=EDGE_LOOP('',(#255));
#158=EDGE_LOOP('',(#256));
#159=EDGE_LOOP('',(#257));
#160=EDGE_LOOP('',(#258));
#161=CIRCLE('',#385,11.);
#162=CIRCLE('',#386,11.);
#163=CIRCLE('',#388,3.);
#164=CIRCLE('',#389,11.);
#165=CIRCLE('',#390,3.);
#166=CIRCLE('',#391,39.4);
#167=CIRCLE('',#393,11.);
#168=CIRCLE('',#395,3.);
#169=CIRCLE('',#396,3.);
#170=CIRCLE('',#397,39.4);
#171=CIRCLE('',#406,40.003391);
#172=CIRCLE('',#407,40.003391);
#173=CIRCLE('',#409,39.8056309613767);
#174=CIRCLE('',#410,39.777886);
#175=CIRCLE('',#412,37.055651);
#176=CIRCLE('',#414,36.717974);
#177=CIRCLE('',#416,36.15);
#178=CIRCLE('',#418,36.15);
#179=CIRCLE('',#420,36.717974);
#180=CIRCLE('',#422,37.055651);
#181=CIRCLE('',#424,39.777886);
#182=CIRCLE('',#426,39.8057248357167);
#183=ORIENTED_EDGE('',*,*,#289,.T.);
#184=ORIENTED_EDGE('',*,*,#290,.F.);
#185=ORIENTED_EDGE('',*,*,#291,.F.);
#186=ORIENTED_EDGE('',*,*,#292,.T.);
#187=ORIENTED_EDGE('',*,*,#293,.F.);
#188=ORIENTED_EDGE('',*,*,#294,.F.);
#189=ORIENTED_EDGE('',*,*,#295,.F.);
#190=ORIENTED_EDGE('',*,*,#296,.T.);
#191=ORIENTED_EDGE('',*,*,#297,.F.);
#192=ORIENTED_EDGE('',*,*,#298,.F.);
#193=ORIENTED_EDGE('',*,*,#299,.F.);
#194=ORIENTED_EDGE('',*,*,#290,.T.);
#195=ORIENTED_EDGE('',*,*,#300,.F.);
#196=ORIENTED_EDGE('',*,*,#301,.F.);
#197=ORIENTED_EDGE('',*,*,#302,.T.);
#198=ORIENTED_EDGE('',*,*,#303,.T.);
#199=ORIENTED_EDGE('',*,*,#296,.F.);
#200=ORIENTED_EDGE('',*,*,#304,.F.);
#201=ORIENTED_EDGE('',*,*,#292,.F.);
#202=ORIENTED_EDGE('',*,*,#305,.F.);
#203=ORIENTED_EDGE('',*,*,#306,.F.);
#204=ORIENTED_EDGE('',*,*,#307,.F.);
#205=ORIENTED_EDGE('',*,*,#302,.F.);
#206=ORIENTED_EDGE('',*,*,#308,.F.);
#207=ORIENTED_EDGE('',*,*,#309,.F.);
#208=ORIENTED_EDGE('',*,*,#310,.T.);
#209=ORIENTED_EDGE('',*,*,#300,.T.);
#210=ORIENTED_EDGE('',*,*,#310,.F.);
#211=ORIENTED_EDGE('',*,*,#298,.T.);
#212=ORIENTED_EDGE('',*,*,#311,.F.);
#213=ORIENTED_EDGE('',*,*,#306,.T.);
#214=ORIENTED_EDGE('',*,*,#312,.T.);
#215=ORIENTED_EDGE('',*,*,#297,.T.);
#216=ORIENTED_EDGE('',*,*,#303,.F.);
#217=ORIENTED_EDGE('',*,*,#307,.T.);
#218=ORIENTED_EDGE('',*,*,#311,.T.);
#219=ORIENTED_EDGE('',*,*,#299,.T.);
#220=ORIENTED_EDGE('',*,*,#312,.F.);
#221=ORIENTED_EDGE('',*,*,#305,.T.);
#222=ORIENTED_EDGE('',*,*,#291,.T.);
#223=ORIENTED_EDGE('',*,*,#294,.T.);
#224=ORIENTED_EDGE('',*,*,#313,.F.);
#225=ORIENTED_EDGE('',*,*,#309,.T.);
#226=ORIENTED_EDGE('',*,*,#314,.T.);
#227=ORIENTED_EDGE('',*,*,#293,.T.);
#228=ORIENTED_EDGE('',*,*,#289,.F.);
#229=ORIENTED_EDGE('',*,*,#304,.T.);
#230=ORIENTED_EDGE('',*,*,#313,.T.);
#231=ORIENTED_EDGE('',*,*,#295,.T.);
#232=ORIENTED_EDGE('',*,*,#314,.F.);
#233=ORIENTED_EDGE('',*,*,#308,.T.);
#234=ORIENTED_EDGE('',*,*,#301,.T.);
#235=ORIENTED_EDGE('',*,*,#315,.T.);
#236=ORIENTED_EDGE('',*,*,#316,.T.);
#237=ORIENTED_EDGE('',*,*,#317,.T.);
#238=ORIENTED_EDGE('',*,*,#318,.F.);
#239=ORIENTED_EDGE('',*,*,#319,.F.);
#240=ORIENTED_EDGE('',*,*,#318,.T.);
#241=ORIENTED_EDGE('',*,*,#320,.F.);
#242=ORIENTED_EDGE('',*,*,#319,.T.);
#243=ORIENTED_EDGE('',*,*,#321,.F.);
#244=ORIENTED_EDGE('',*,*,#320,.T.);
#245=ORIENTED_EDGE('',*,*,#322,.F.);
#246=ORIENTED_EDGE('',*,*,#321,.T.);
#247=ORIENTED_EDGE('',*,*,#323,.F.);
#248=ORIENTED_EDGE('',*,*,#322,.T.);
#249=ORIENTED_EDGE('',*,*,#324,.F.);
#250=ORIENTED_EDGE('',*,*,#323,.T.);
#251=ORIENTED_EDGE('',*,*,#325,.F.);
#252=ORIENTED_EDGE('',*,*,#324,.T.);
#253=ORIENTED_EDGE('',*,*,#326,.T.);
#254=ORIENTED_EDGE('',*,*,#325,.T.);
#255=ORIENTED_EDGE('',*,*,#316,.F.);
#256=ORIENTED_EDGE('',*,*,#317,.F.);
#257=ORIENTED_EDGE('',*,*,#326,.F.);
#258=ORIENTED_EDGE('',*,*,#315,.F.);
#259=VERTEX_POINT('',#549);
#260=VERTEX_POINT('',#550);
#261=VERTEX_POINT('',#552);
#262=VERTEX_POINT('',#554);
#263=VERTEX_POINT('',#558);
#264=VERTEX_POINT('',#560);
#265=VERTEX_POINT('',#562);
#266=VERTEX_POINT('',#564);
#267=VERTEX_POINT('',#566);
#268=VERTEX_POINT('',#568);
#269=VERTEX_POINT('',#571);
#270=VERTEX_POINT('',#574);
#271=VERTEX_POINT('',#576);
#272=VERTEX_POINT('',#580);
#273=VERTEX_POINT('',#582);
#274=VERTEX_POINT('',#584);
#275=VERTEX_POINT('',#587);
#276=VERTEX_POINT('',#590);
#277=VERTEX_POINT('',#604);
#278=VERTEX_POINT('',#606);
#279=VERTEX_POINT('',#609);
#280=VERTEX_POINT('',#611);
#281=VERTEX_POINT('',#614);
#282=VERTEX_POINT('',#617);
#283=VERTEX_POINT('',#620);
#284=VERTEX_POINT('',#623);
#285=VERTEX_POINT('',#626);
#286=VERTEX_POINT('',#629);
#287=VERTEX_POINT('',#632);
#288=VERTEX_POINT('',#635);
#289=EDGE_CURVE('',#259,#260,#327,.T.);
#290=EDGE_CURVE('',#261,#260,#161,.T.);
#291=EDGE_CURVE('',#262,#261,#328,.T.);
#292=EDGE_CURVE('',#262,#259,#162,.T.);
#293=EDGE_CURVE('',#263,#260,#329,.T.);
#294=EDGE_CURVE('',#264,#263,#163,.T.);
#295=EDGE_CURVE('',#265,#264,#330,.T.);
#296=EDGE_CURVE('',#265,#266,#164,.T.);
#297=EDGE_CURVE('',#267,#266,#331,.T.);
#298=EDGE_CURVE('',#268,#267,#165,.T.);
#299=EDGE_CURVE('',#261,#268,#332,.T.);
#300=EDGE_CURVE('',#269,#269,#166,.T.);
#301=EDGE_CURVE('',#270,#265,#333,.T.);
#302=EDGE_CURVE('',#270,#271,#167,.T.);
#303=EDGE_CURVE('',#271,#266,#334,.T.);
#304=EDGE_CURVE('',#259,#272,#335,.T.);
#305=EDGE_CURVE('',#273,#262,#336,.T.);
#306=EDGE_CURVE('',#274,#273,#168,.T.);
#307=EDGE_CURVE('',#271,#274,#337,.T.);
#308=EDGE_CURVE('',#275,#270,#338,.T.);
#309=EDGE_CURVE('',#272,#275,#169,.T.);
#310=EDGE_CURVE('',#276,#276,#170,.T.);
#311=EDGE_CURVE('',#274,#267,#339,.T.);
#312=EDGE_CURVE('',#273,#268,#340,.T.);
#313=EDGE_CURVE('',#272,#263,#341,.T.);
#314=EDGE_CURVE('',#275,#264,#342,.T.);
#315=EDGE_CURVE('',#277,#277,#171,.T.);
#316=EDGE_CURVE('',#278,#278,#172,.T.);
#317=EDGE_CURVE('',#279,#279,#173,.T.);
#318=EDGE_CURVE('',#280,#280,#174,.T.);
#319=EDGE_CURVE('',#281,#281,#175,.T.);
#320=EDGE_CURVE('',#282,#282,#176,.T.);
#321=EDGE_CURVE('',#283,#283,#177,.T.);
#322=EDGE_CURVE('',#284,#284,#178,.T.);
#323=EDGE_CURVE('',#285,#285,#179,.T.);
#324=EDGE_CURVE('',#286,#286,#180,.T.);
#325=EDGE_CURVE('',#287,#287,#181,.T.);
#326=EDGE_CURVE('',#288,#288,#182,.T.);
#327=LINE('',#548,#343);
#328=LINE('',#553,#344);
#329=LINE('',#557,#345);
#330=LINE('',#561,#346);
#331=LINE('',#565,#347);
#332=LINE('',#569,#348);
#333=LINE('',#573,#349);
#334=LINE('',#577,#350);
#335=LINE('',#579,#351);
#336=LINE('',#581,#352);
#337=LINE('',#585,#353);
#338=LINE('',#586,#354);
#339=LINE('',#593,#355);
#340=LINE('',#594,#356);
#341=LINE('',#598,#357);
#342=LINE('',#599,#358);
#343=VECTOR('',#438,1.);
#344=VECTOR('',#441,1.);
#345=VECTOR('',#446,1.);
#346=VECTOR('',#449,1.);
#347=VECTOR('',#452,1.);
#348=VECTOR('',#455,1.);
#349=VECTOR('',#460,1.);
#350=VECTOR('',#463,1.);
#351=VECTOR('',#466,1.);
#352=VECTOR('',#467,1.);
#353=VECTOR('',#470,1.);
#354=VECTOR('',#471,1.);
#355=VECTOR('',#480,1.);
#356=VECTOR('',#481,1.);
#357=VECTOR('',#488,1.);
#358=VECTOR('',#489,1.);
#359=PRESENTATION_LAYER_ASSIGNMENT('1','Layer 1',(#382,#383,#384));
#360=PRESENTATION_LAYER_ASSIGNMENT('2','Layer 2',(#45));
#361=PRESENTATION_LAYER_ASSIGNMENT('3','Layer 3',(#46));
#362=STYLED_ITEM('',(#367),#382);
#363=STYLED_ITEM('',(#368),#383);
#364=STYLED_ITEM('',(#369),#384);
#365=STYLED_ITEM('',(#370),#45);
#366=STYLED_ITEM('',(#371),#46);
#367=PRESENTATION_STYLE_ASSIGNMENT((#372));
#368=PRESENTATION_STYLE_ASSIGNMENT((#373));
#369=PRESENTATION_STYLE_ASSIGNMENT((#374));
#370=PRESENTATION_STYLE_ASSIGNMENT((#35));
#371=PRESENTATION_STYLE_ASSIGNMENT((#36));
#372=CURVE_STYLE('',#378,POSITIVE_LENGTH_MEASURE(0.18),#375);
#373=CURVE_STYLE('',#379,POSITIVE_LENGTH_MEASURE(0.18),#375);
#374=CURVE_STYLE('',#380,POSITIVE_LENGTH_MEASURE(0.18),#375);
#375=COLOUR_RGB('Medium Maroon',0.6,0.4,0.4);
#376=COLOUR_RGB('Medium Gray',0.490196078431373,0.490196078431373,0.490196078431373);
#377=COLOUR_RGB('Light Gray',0.8,0.8,0.8);
#378=DRAUGHTING_PRE_DEFINED_CURVE_FONT('continuous');
#379=DRAUGHTING_PRE_DEFINED_CURVE_FONT('continuous');
#380=DRAUGHTING_PRE_DEFINED_CURVE_FONT('continuous');
#381=AXIS2_PLACEMENT_3D('',#544,#430,#431);
#382=AXIS2_PLACEMENT_3D('PCS',#545,#432,#433);
#383=AXIS2_PLACEMENT_3D('MCS',#546,#434,#435);
#384=AXIS2_PLACEMENT_3D('CIP',#547,#436,#437);
#385=AXIS2_PLACEMENT_3D('',#551,#439,#440);
#386=AXIS2_PLACEMENT_3D('',#555,#442,#443);
#387=AXIS2_PLACEMENT_3D('',#556,#444,#445);
#388=AXIS2_PLACEMENT_3D('',#559,#447,#448);
#389=AXIS2_PLACEMENT_3D('',#563,#450,#451);
#390=AXIS2_PLACEMENT_3D('',#567,#453,#454);
#391=AXIS2_PLACEMENT_3D('',#570,#456,#457);
#392=AXIS2_PLACEMENT_3D('',#572,#458,#459);
#393=AXIS2_PLACEMENT_3D('',#575,#461,#462);
#394=AXIS2_PLACEMENT_3D('',#578,#464,#465);
#395=AXIS2_PLACEMENT_3D('',#583,#468,#469);
#396=AXIS2_PLACEMENT_3D('',#588,#472,#473);
#397=AXIS2_PLACEMENT_3D('',#589,#474,#475);
#398=AXIS2_PLACEMENT_3D('',#591,#476,#477);
#399=AXIS2_PLACEMENT_3D('',#592,#478,#479);
#400=AXIS2_PLACEMENT_3D('',#595,#482,#483);
#401=AXIS2_PLACEMENT_3D('',#596,#484,#485);
#402=AXIS2_PLACEMENT_3D('',#597,#486,#487);
#403=AXIS2_PLACEMENT_3D('',#600,#490,#491);
#404=AXIS2_PLACEMENT_3D('',#601,#492,#493);
#405=AXIS2_PLACEMENT_3D('',#602,#494,#495);
#406=AXIS2_PLACEMENT_3D('',#603,#496,#497);
#407=AXIS2_PLACEMENT_3D('',#605,#498,#499);
#408=AXIS2_PLACEMENT_3D('',#607,#500,#501);
#409=AXIS2_PLACEMENT_3D('',#608,#502,#503);
#410=AXIS2_PLACEMENT_3D('',#610,#504,#505);
#411=AXIS2_PLACEMENT_3D('',#612,#506,#507);
#412=AXIS2_PLACEMENT_3D('',#613,#508,#509);
#413=AXIS2_PLACEMENT_3D('',#615,#510,#511);
#414=AXIS2_PLACEMENT_3D('',#616,#512,#513);
#415=AXIS2_PLACEMENT_3D('',#618,#514,#515);
#416=AXIS2_PLACEMENT_3D('',#619,#516,#517);
#417=AXIS2_PLACEMENT_3D('',#621,#518,#519);
#418=AXIS2_PLACEMENT_3D('',#622,#520,#521);
#419=AXIS2_PLACEMENT_3D('',#624,#522,#523);
#420=AXIS2_PLACEMENT_3D('',#625,#524,#525);
#421=AXIS2_PLACEMENT_3D('',#627,#526,#527);
#422=AXIS2_PLACEMENT_3D('',#628,#528,#529);
#423=AXIS2_PLACEMENT_3D('',#630,#530,#531);
#424=AXIS2_PLACEMENT_3D('',#631,#532,#533);
#425=AXIS2_PLACEMENT_3D('',#633,#534,#535);
#426=AXIS2_PLACEMENT_3D('',#634,#536,#537);
#427=AXIS2_PLACEMENT_3D('',#636,#538,#539);
#428=AXIS2_PLACEMENT_3D('',#637,#540,#541);
#429=AXIS2_PLACEMENT_3D('',#638,#542,#543);
#430=DIRECTION('',(0.,0.,1.));
#431=DIRECTION('',(1.,0.,0.));
#432=DIRECTION('',(0.,0.,1.));
#433=DIRECTION('',(1.,0.,0.));
#434=DIRECTION('',(0.,0.,1.));
#435=DIRECTION('',(1.,0.,0.));
#436=DIRECTION('',(0.,0.,1.));
#437=DIRECTION('',(1.,0.,0.));
#438=DIRECTION('',(1.01451010512803E-15,5.85727682291262E-16,1.));
#439=DIRECTION('',(0.,0.,-1.));
#440=DIRECTION('',(-1.,0.,0.));
#441=DIRECTION('',(-1.17145536458252E-15,0.,1.));
#442=DIRECTION('',(0.,0.,-1.));
#443=DIRECTION('',(-1.,0.,0.));
#444=DIRECTION('',(0.,0.,-1.));
#445=DIRECTION('',(1.,0.,0.));
#446=DIRECTION('',(0.866025403784439,0.5,0.));
#447=DIRECTION('',(0.,0.,1.));
#448=DIRECTION('',(1.,0.,0.));
#449=DIRECTION('',(-0.866025403784439,-0.5,0.));
#450=DIRECTION('',(0.,0.,-1.));
#451=DIRECTION('',(-1.,0.,0.));
#452=DIRECTION('',(-1.,0.,0.));
#453=DIRECTION('',(0.,0.,1.));
#454=DIRECTION('',(1.,0.,0.));
#455=DIRECTION('',(1.,0.,0.));
#456=DIRECTION('',(0.,0.,-1.));
#457=DIRECTION('',(-1.,0.,0.));
#458=DIRECTION('',(0.,0.,1.));
#459=DIRECTION('',(-1.,0.,0.));
#460=DIRECTION('',(1.01451010512803E-15,5.85727682291262E-16,1.));
#461=DIRECTION('',(0.,0.,-1.));
#462=DIRECTION('',(-1.,0.,0.));
#463=DIRECTION('',(-1.17145536458252E-15,0.,1.));
#464=DIRECTION('',(0.,0.,-1.));
#465=DIRECTION('',(1.,0.,0.));
#466=DIRECTION('',(-0.866025403784439,-0.5,0.));
#467=DIRECTION('',(-1.,0.,0.));
#468=DIRECTION('',(0.,0.,-1.));
#469=DIRECTION('',(-1.,0.,0.));
#470=DIRECTION('',(1.,0.,0.));
#471=DIRECTION('',(0.866025403784439,0.5,0.));
#472=DIRECTION('',(0.,0.,-1.));
#473=DIRECTION('',(-1.,0.,0.));
#474=DIRECTION('',(0.,0.,-1.));
#475=DIRECTION('',(-1.,0.,0.));
#476=DIRECTION('',(0.,0.,-1.));
#477=DIRECTION('',(1.,0.,0.));
#478=DIRECTION('',(0.,0.,-1.));
#479=DIRECTION('',(1.,0.,0.));
#480=DIRECTION('',(-1.17145536458252E-15,0.,1.));
#481=DIRECTION('',(-1.17145536458252E-15,0.,1.));
#482=DIRECTION('',(-1.17145536458252E-15,0.,1.));
#483=DIRECTION('',(-1.,0.,-1.15648231731787E-15));
#484=DIRECTION('',(0.,1.,0.));
#485=DIRECTION('',(0.,0.,-1.));
#486=DIRECTION('',(0.,-1.,0.));
#487=DIRECTION('',(0.,0.,1.));
#488=DIRECTION('',(1.01451010512803E-15,5.85727682291262E-16,1.));
#489=DIRECTION('',(1.01451010512803E-15,5.85727682291262E-16,1.));
#490=DIRECTION('',(1.01451010512803E-15,5.85727682291262E-16,1.));
#491=DIRECTION('',(0.866025403784439,0.5,-1.15648231731787E-15));
#492=DIRECTION('',(0.5,-0.866025403784439,0.));
#493=DIRECTION('',(0.,0.,-1.));
#494=DIRECTION('',(-0.5,0.866025403784439,0.));
#495=DIRECTION('',(0.,0.,1.));
#496=DIRECTION('',(0.,0.,1.));
#497=DIRECTION('',(-1.,0.,0.));
#498=DIRECTION('',(0.,0.,-1.));
#499=DIRECTION('',(-1.,0.,0.));
#500=DIRECTION('',(0.,0.,1.));
#501=DIRECTION('',(-1.,0.,0.));
#502=DIRECTION('',(0.,0.,1.));
#503=DIRECTION('',(1.,0.,0.));
#504=DIRECTION('',(0.,0.,1.));
#505=DIRECTION('',(1.,0.,0.));
#506=DIRECTION('',(0.,0.,-1.));
#507=DIRECTION('',(1.,0.,-5.89916711329182E-19));
#508=DIRECTION('',(0.,0.,1.));
#509=DIRECTION('',(1.,0.,0.));
#510=DIRECTION('',(0.,0.,1.));
#511=DIRECTION('',(-1.,0.,7.28452396033621E-18));
#512=DIRECTION('',(0.,0.,1.));
#513=DIRECTION('',(1.,0.,0.));
#514=DIRECTION('',(0.,0.,1.));
#515=DIRECTION('',(-1.,0.,7.10418892388856E-18));
#516=DIRECTION('',(0.,0.,1.));
#517=DIRECTION('',(1.,0.,0.));
#518=DIRECTION('',(0.,0.,1.));
#519=DIRECTION('',(-1.,0.,-1.07004250815863E-18));
#520=DIRECTION('',(0.,0.,1.));
#521=DIRECTION('',(1.,0.,0.));
#522=DIRECTION('',(0.,0.,1.));
#523=DIRECTION('',(-1.,0.,0.));
#524=DIRECTION('',(0.,0.,1.));
#525=DIRECTION('',(1.,0.,0.));
#526=DIRECTION('',(0.,0.,-1.));
#527=DIRECTION('',(1.,0.,-3.02497498198095E-19));
#528=DIRECTION('',(0.,0.,1.));
#529=DIRECTION('',(1.,0.,0.));
#530=DIRECTION('',(0.,0.,-1.));
#531=DIRECTION('',(1.,0.,3.93216098347777E-18));
#532=DIRECTION('',(0.,0.,1.));
#533=DIRECTION('',(1.,0.,0.));
#534=DIRECTION('',(0.,0.,-1.));
#535=DIRECTION('',(1.,0.,-4.20442586031552E-18));
#536=DIRECTION('',(0.,0.,-1.));
#537=DIRECTION('',(-1.,0.,0.));
#538=DIRECTION('',(0.,0.,1.));
#539=DIRECTION('',(-1.,0.,5.71632627596934E-19));
#540=DIRECTION('',(0.,0.,-1.));
#541=DIRECTION('',(1.,0.,0.));
#542=DIRECTION('',(0.,0.,-1.));
#543=DIRECTION('',(1.,0.,0.));
#544=CARTESIAN_POINT('',(0.,0.,0.));
#545=CARTESIAN_POINT('',(0.,0.,0.));
#546=CARTESIAN_POINT('',(0.,0.,0.));
#547=CARTESIAN_POINT('',(0.,0.,-2.755687));
#548=CARTESIAN_POINT('',(-7.66515138991169,-7.8895788334825,-10.));
#549=CARTESIAN_POINT('',(-7.66515138991168,-7.8895788334825,-2.4));
#550=CARTESIAN_POINT('',(-7.66515138991168,-7.8895788334825,0.));
#551=CARTESIAN_POINT('',(0.,0.,0.));
#552=CARTESIAN_POINT('',(10.5830052442492,-3.00000000003237,0.));
#553=CARTESIAN_POINT('',(10.5830052442492,-3.00000000003237,-10.));
#554=CARTESIAN_POINT('',(10.5830052442492,-3.00000000003237,-2.4));
#555=CARTESIAN_POINT('',(0.,0.,-2.4));
#556=CARTESIAN_POINT('',(0.,0.,4.));
#557=CARTESIAN_POINT('',(-28.05,-19.6587766659068,0.));
#558=CARTESIAN_POINT('',(-8.97890738579171,-8.64807621135332,0.));
#559=CARTESIAN_POINT('',(-10.4789073857917,-6.05,0.));
#560=CARTESIAN_POINT('',(-11.9789073857917,-3.45192378864669,0.));
#561=CARTESIAN_POINT('',(-31.05,-14.4626242432001,0.));
#562=CARTESIAN_POINT('',(-10.6651513899199,-2.69342641074324,0.));
#563=CARTESIAN_POINT('',(0.,0.,0.));
#564=CARTESIAN_POINT('',(10.5830052442584,3.,0.));
#565=CARTESIAN_POINT('',(-39.4,3.,0.));
#566=CARTESIAN_POINT('',(12.1,3.,0.));
#567=CARTESIAN_POINT('',(12.1,1.62908973318427E-15,0.));
#568=CARTESIAN_POINT('',(12.1,-3.,0.));
#569=CARTESIAN_POINT('',(-39.4,-3.,0.));
#570=CARTESIAN_POINT('',(0.,0.,0.));
#571=CARTESIAN_POINT('',(-39.4,0.,0.));
#572=CARTESIAN_POINT('',(-39.4,0.,0.));
#573=CARTESIAN_POINT('',(-10.6651513899199,-2.69342641074325,-10.));
#574=CARTESIAN_POINT('',(-10.6651513899199,-2.69342641074324,-2.4));
#575=CARTESIAN_POINT('',(0.,0.,-2.4));
#576=CARTESIAN_POINT('',(10.5830052442584,3.,-2.4));
#577=CARTESIAN_POINT('',(10.5830052442584,3.,-10.));
#578=CARTESIAN_POINT('',(0.,0.,4.));
#579=CARTESIAN_POINT('',(-6.75,-7.36121593216773,-2.4));
#580=CARTESIAN_POINT('',(-8.97890738579171,-8.64807621135332,-2.4));
#581=CARTESIAN_POINT('',(-11.,-3.,-2.4));
#582=CARTESIAN_POINT('',(12.1,-3.,-2.4));
#583=CARTESIAN_POINT('',(12.1,1.62908973318427E-15,-2.4));
#584=CARTESIAN_POINT('',(12.1,3.,-2.4));
#585=CARTESIAN_POINT('',(-11.,3.,-2.4));
#586=CARTESIAN_POINT('',(-9.75,-2.1650635094611,-2.4));
#587=CARTESIAN_POINT('',(-11.9789073857917,-3.45192378864669,-2.4));
#588=CARTESIAN_POINT('',(-10.4789073857917,-6.05000000000001,-2.4));
#589=CARTESIAN_POINT('',(0.,0.,-2.4));
#590=CARTESIAN_POINT('',(-39.4,0.,-2.4));
#591=CARTESIAN_POINT('',(-11.,0.,-2.4));
#592=CARTESIAN_POINT('',(0.,0.,4.));
#593=CARTESIAN_POINT('',(12.1,3.,-10.));
#594=CARTESIAN_POINT('',(12.1,-3.,-10.));
#595=CARTESIAN_POINT('',(12.1,1.62908973318427E-15,-10.));
#596=CARTESIAN_POINT('',(12.1,3.,-10.));
#597=CARTESIAN_POINT('',(10.5830052442584,-3.,-10.));
#598=CARTESIAN_POINT('',(-8.97890738579172,-8.64807621135333,-10.));
#599=CARTESIAN_POINT('',(-11.9789073857917,-3.45192378864669,-10.));
#600=CARTESIAN_POINT('',(-10.4789073857917,-6.05000000000001,-10.));
#601=CARTESIAN_POINT('',(-8.97890738579172,-8.64807621135332,-10.));
#602=CARTESIAN_POINT('',(-10.6651513899117,-2.69342641077587,-10.));
#603=CARTESIAN_POINT('',(0.,0.,-2.55537573897087));
#604=CARTESIAN_POINT('',(-40.003391,0.,-2.55537573897087));
#605=CARTESIAN_POINT('',(0.,0.,0.155388786260731));
#606=CARTESIAN_POINT('',(-40.003391,0.,0.155388786260731));
#607=CARTESIAN_POINT('',(0.,0.,-6.351472));
#608=CARTESIAN_POINT('',(0.,0.,0.355376242299931));
#609=CARTESIAN_POINT('',(39.8056309613767,0.,0.355376242299931));
#610=CARTESIAN_POINT('',(0.,0.,0.355687));
#611=CARTESIAN_POINT('',(39.777886,0.,0.355687));
#612=CARTESIAN_POINT('',(0.,0.,0.3553));
#613=CARTESIAN_POINT('',(0.,0.,0.165329000000001));
#614=CARTESIAN_POINT('',(37.055651,0.,0.165329000000001));
#615=CARTESIAN_POINT('',(0.,0.,0.355687));
#616=CARTESIAN_POINT('',(0.,0.,0.141717000000001));
#617=CARTESIAN_POINT('',(36.717974,0.,0.141717000000001));
#618=CARTESIAN_POINT('',(0.,0.,0.165329000000001));
#619=CARTESIAN_POINT('',(0.,0.,0.102));
#620=CARTESIAN_POINT('',(36.15,0.,0.102));
#621=CARTESIAN_POINT('',(0.,0.,0.141717000000001));
#622=CARTESIAN_POINT('',(0.,0.,-2.502));
#623=CARTESIAN_POINT('',(36.15,0.,-2.502));
#624=CARTESIAN_POINT('',(0.,0.,-6.351472));
#625=CARTESIAN_POINT('',(0.,0.,-2.541717));
#626=CARTESIAN_POINT('',(36.717974,0.,-2.541717));
#627=CARTESIAN_POINT('',(0.,0.,-2.502));
#628=CARTESIAN_POINT('',(0.,0.,-2.565329));
#629=CARTESIAN_POINT('',(37.055651,0.,-2.565329));
#630=CARTESIAN_POINT('',(0.,0.,-2.541717));
#631=CARTESIAN_POINT('',(0.,0.,-2.755687));
#632=CARTESIAN_POINT('',(39.777886,0.,-2.755687));
#633=CARTESIAN_POINT('',(0.,0.,-2.565329));
#634=CARTESIAN_POINT('',(0.,0.,-2.75536212153441));
#635=CARTESIAN_POINT('',(-39.8057248357167,0.,-2.75536212153441));
#636=CARTESIAN_POINT('',(0.,0.,-2.755687));
#637=CARTESIAN_POINT('',(0.,0.,0.155388786260731));
#638=CARTESIAN_POINT('',(0.,0.,-2.55537573897087));
#639=MECHANICAL_DESIGN_GEOMETRIC_PRESENTATION_REPRESENTATION('',(#362,#363,
#364,#365,#366),#640);
#640=(
GEOMETRIC_REPRESENTATION_CONTEXT(3)
GLOBAL_UNCERTAINTY_ASSIGNED_CONTEXT((#641))
GLOBAL_UNIT_ASSIGNED_CONTEXT((#647,#643,#642))
REPRESENTATION_CONTEXT('335.10-080-03','TOP_LEVEL_ASSEMBLY_PART')
);
#641=UNCERTAINTY_MEASURE_WITH_UNIT(LENGTH_MEASURE(2.E-5),#647,
'DISTANCE_ACCURACY_VALUE','Maximum Tolerance applied to model');
#642=(
NAMED_UNIT(*)
SI_UNIT($,.STERADIAN.)
SOLID_ANGLE_UNIT()
);
#643=(
CONVERSION_BASED_UNIT('DEGREE',#645)
NAMED_UNIT(#644)
PLANE_ANGLE_UNIT()
);
#644=DIMENSIONAL_EXPONENTS(0.,0.,0.,0.,0.,0.,0.);
#645=PLANE_ANGLE_MEASURE_WITH_UNIT(PLANE_ANGLE_MEASURE(0.0174532925),#646);
#646=(
NAMED_UNIT(*)
PLANE_ANGLE_UNIT()
SI_UNIT($,.RADIAN.)
);
#647=(
LENGTH_UNIT()
NAMED_UNIT(*)
SI_UNIT(.MILLI.,.METRE.)
);
ENDSEC;
END-ISO-10303-21;
