ISO-10303-21;
HEADER;
/* Generated by software containing ST-Developer
 * from STEP Tools, Inc. (www.steptools.com) 
 */
/* OPTION: using custom schema-name function */

FILE_DESCRIPTION(
/* description */ (''),
/* implementation_level */ '2;1');

FILE_NAME(
/* name */ '335.10-080-02.22-6.stp',
/* time_stamp */ '2017-09-14T10:21:10+06:00',
/* author */ (''),
/* organization */ (''),
/* preprocessor_version */ 'ST-DEVELOPER v16',
/* originating_system */ 'SIEMENS PLM Software NX 11.0',
/* authorisation */ '');

FILE_SCHEMA (('AUTOMOTIVE_DESIGN { 1 0 10303 214 3 1 1 1 }'));
ENDSEC;

DATA;
#10=CONSTRUCTIVE_GEOMETRY_REPRESENTATION_RELATIONSHIP(
'supplemental geometry','',#24,#11);
#11=CONSTRUCTIVE_GEOMETRY_REPRESENTATION('supplemental geometry',(#318,
#319,#320),#524);
#12=SHAPE_REPRESENTATION_RELATIONSHIP('None',
'relationship between 335.10-080-02.22-6-None and 335.10-080-02.22-6-N
one',#24,#13);
#13=ADVANCED_BREP_SHAPE_REPRESENTATION('335.10-080-02.22-6-None',(#38,#39),
#524);
#14=SHAPE_DEFINITION_REPRESENTATION(#15,#24);
#15=PRODUCT_DEFINITION_SHAPE('','',#16);
#16=PRODUCT_DEFINITION(' ','',#18,#17);
#17=PRODUCT_DEFINITION_CONTEXT('part definition',#23,'design');
#18=PRODUCT_DEFINITION_FORMATION_WITH_SPECIFIED_SOURCE(' ',' ',#20,
 .NOT_KNOWN.);
#19=PRODUCT_RELATED_PRODUCT_CATEGORY('part','',(#20));
#20=PRODUCT('335.10-080-02.22-6','335.10-080-02.22-6',' ',(#21));
#21=PRODUCT_CONTEXT(' ',#23,'mechanical');
#22=APPLICATION_PROTOCOL_DEFINITION('international standard',
'automotive_design',2010,#23);
#23=APPLICATION_CONTEXT(
'core data for automotive mechanical design processes');
#24=SHAPE_REPRESENTATION('335.10-080-02.22-6-None',(#317),#524);
#25=SURFACE_OF_REVOLUTION('',#27,#26);
#26=AXIS1_PLACEMENT('',#509,#423);
#27=(
BOUNDED_CURVE()
B_SPLINE_CURVE(3,(#505,#506,#507,#508),.UNSPECIFIED.,.F.,.F.)
B_SPLINE_CURVE_WITH_KNOTS((4,4),(0.,1.),.UNSPECIFIED.)
CURVE()
GEOMETRIC_REPRESENTATION_ITEM()
RATIONAL_B_SPLINE_CURVE((1.,0.981428302870456,0.981428302870456,1.))
REPRESENTATION_ITEM('')
);
#28=SURFACE_STYLE_USAGE(.BOTH.,#30);
#29=SURFACE_STYLE_USAGE(.BOTH.,#31);
#30=SURFACE_SIDE_STYLE('',(#32));
#31=SURFACE_SIDE_STYLE('',(#33));
#32=SURFACE_STYLE_FILL_AREA(#34);
#33=SURFACE_STYLE_FILL_AREA(#35);
#34=FILL_AREA_STYLE('',(#36));
#35=FILL_AREA_STYLE('',(#37));
#36=FILL_AREA_STYLE_COLOUR('',#312);
#37=FILL_AREA_STYLE_COLOUR('',#313);
#38=MANIFOLD_SOLID_BREP('NOCUT',#40);
#39=MANIFOLD_SOLID_BREP('CUT',#41);
#40=CLOSED_SHELL('',(#58,#59,#60,#61,#62,#63,#64,#65,#66,#67,#68));
#41=CLOSED_SHELL('',(#69,#70,#71,#72,#73,#74));
#42=FACE_OUTER_BOUND('',#139,.T.);
#43=FACE_OUTER_BOUND('',#140,.T.);
#44=FACE_OUTER_BOUND('',#141,.T.);
#45=FACE_OUTER_BOUND('',#142,.T.);
#46=FACE_OUTER_BOUND('',#143,.T.);
#47=FACE_OUTER_BOUND('',#144,.T.);
#48=FACE_OUTER_BOUND('',#145,.T.);
#49=FACE_OUTER_BOUND('',#146,.T.);
#50=CYLINDRICAL_SURFACE('',#333,39.4);
#51=CYLINDRICAL_SURFACE('',#334,11.00525);
#52=CYLINDRICAL_SURFACE('',#335,11.00525);
#53=CYLINDRICAL_SURFACE('',#336,3.00000000000001);
#54=CYLINDRICAL_SURFACE('',#339,3.);
#55=CYLINDRICAL_SURFACE('',#345,31.482776569579);
#56=CYLINDRICAL_SURFACE('',#349,40.);
#57=CYLINDRICAL_SURFACE('',#352,31.482776569579);
#58=ADVANCED_FACE('',(#115,#116),#75,.T.);
#59=ADVANCED_FACE('',(#117,#118),#76,.F.);
#60=ADVANCED_FACE('',(#119,#120),#50,.T.);
#61=ADVANCED_FACE('',(#42),#51,.F.);
#62=ADVANCED_FACE('',(#43),#52,.F.);
#63=ADVANCED_FACE('',(#44),#53,.F.);
#64=ADVANCED_FACE('',(#45),#77,.T.);
#65=ADVANCED_FACE('',(#46),#78,.T.);
#66=ADVANCED_FACE('',(#47),#54,.F.);
#67=ADVANCED_FACE('',(#48),#79,.T.);
#68=ADVANCED_FACE('',(#49),#80,.F.);
#69=ADVANCED_FACE('',(#121,#122),#25,.F.);
#70=ADVANCED_FACE('',(#123,#124),#55,.F.);
#71=ADVANCED_FACE('',(#125,#126),#81,.T.);
#72=ADVANCED_FACE('',(#127,#128),#56,.T.);
#73=ADVANCED_FACE('',(#129,#130),#82,.T.);
#74=ADVANCED_FACE('',(#131,#132),#57,.F.);
#75=PLANE('',#326);
#76=PLANE('',#332);
#77=PLANE('',#337);
#78=PLANE('',#338);
#79=PLANE('',#340);
#80=PLANE('',#341);
#81=PLANE('',#347);
#82=PLANE('',#351);
#83=LINE('',#451,#99);
#84=LINE('',#455,#100);
#85=LINE('',#459,#101);
#86=LINE('',#463,#102);
#87=LINE('',#467,#103);
#88=LINE('',#472,#104);
#89=LINE('',#476,#105);
#90=LINE('',#480,#106);
#91=LINE('',#485,#107);
#92=LINE('',#486,#108);
#93=LINE('',#488,#109);
#94=LINE('',#489,#110);
#95=LINE('',#491,#111);
#96=LINE('',#492,#112);
#97=LINE('',#496,#113);
#98=LINE('',#497,#114);
#99=VECTOR('',#365,1.);
#100=VECTOR('',#368,1.);
#101=VECTOR('',#371,1.);
#102=VECTOR('',#374,1.);
#103=VECTOR('',#379,1.);
#104=VECTOR('',#382,1.);
#105=VECTOR('',#385,1.);
#106=VECTOR('',#388,1.);
#107=VECTOR('',#395,1.);
#108=VECTOR('',#396,1.);
#109=VECTOR('',#399,1.);
#110=VECTOR('',#400,1.);
#111=VECTOR('',#403,1.);
#112=VECTOR('',#404,1.);
#113=VECTOR('',#411,1.);
#114=VECTOR('',#412,1.);
#115=FACE_BOUND('',#133,.T.);
#116=FACE_BOUND('',#134,.T.);
#117=FACE_BOUND('',#135,.T.);
#118=FACE_BOUND('',#136,.T.);
#119=FACE_BOUND('',#137,.T.);
#120=FACE_BOUND('',#138,.T.);
#121=FACE_BOUND('',#147,.T.);
#122=FACE_BOUND('',#148,.T.);
#123=FACE_BOUND('',#149,.T.);
#124=FACE_BOUND('',#150,.T.);
#125=FACE_BOUND('',#151,.T.);
#126=FACE_BOUND('',#152,.T.);
#127=FACE_BOUND('',#153,.T.);
#128=FACE_BOUND('',#154,.T.);
#129=FACE_BOUND('',#155,.T.);
#130=FACE_BOUND('',#156,.T.);
#131=FACE_BOUND('',#157,.T.);
#132=FACE_BOUND('',#158,.T.);
#133=EDGE_LOOP('',(#159));
#134=EDGE_LOOP('',(#160,#161,#162,#163,#164,#165,#166,#167));
#135=EDGE_LOOP('',(#168));
#136=EDGE_LOOP('',(#169,#170,#171,#172,#173,#174,#175,#176));
#137=EDGE_LOOP('',(#177));
#138=EDGE_LOOP('',(#178));
#139=EDGE_LOOP('',(#179,#180,#181,#182));
#140=EDGE_LOOP('',(#183,#184,#185,#186));
#141=EDGE_LOOP('',(#187,#188,#189,#190));
#142=EDGE_LOOP('',(#191,#192,#193,#194));
#143=EDGE_LOOP('',(#195,#196,#197,#198));
#144=EDGE_LOOP('',(#199,#200,#201,#202));
#145=EDGE_LOOP('',(#203,#204,#205,#206));
#146=EDGE_LOOP('',(#207,#208,#209,#210));
#147=EDGE_LOOP('',(#211));
#148=EDGE_LOOP('',(#212));
#149=EDGE_LOOP('',(#213));
#150=EDGE_LOOP('',(#214));
#151=EDGE_LOOP('',(#215));
#152=EDGE_LOOP('',(#216));
#153=EDGE_LOOP('',(#217));
#154=EDGE_LOOP('',(#218));
#155=EDGE_LOOP('',(#219));
#156=EDGE_LOOP('',(#220));
#157=EDGE_LOOP('',(#221));
#158=EDGE_LOOP('',(#222));
#159=ORIENTED_EDGE('',*,*,#247,.T.);
#160=ORIENTED_EDGE('',*,*,#248,.F.);
#161=ORIENTED_EDGE('',*,*,#249,.T.);
#162=ORIENTED_EDGE('',*,*,#250,.F.);
#163=ORIENTED_EDGE('',*,*,#251,.T.);
#164=ORIENTED_EDGE('',*,*,#252,.F.);
#165=ORIENTED_EDGE('',*,*,#253,.F.);
#166=ORIENTED_EDGE('',*,*,#254,.F.);
#167=ORIENTED_EDGE('',*,*,#255,.T.);
#168=ORIENTED_EDGE('',*,*,#256,.F.);
#169=ORIENTED_EDGE('',*,*,#257,.F.);
#170=ORIENTED_EDGE('',*,*,#258,.T.);
#171=ORIENTED_EDGE('',*,*,#259,.F.);
#172=ORIENTED_EDGE('',*,*,#260,.T.);
#173=ORIENTED_EDGE('',*,*,#261,.T.);
#174=ORIENTED_EDGE('',*,*,#262,.T.);
#175=ORIENTED_EDGE('',*,*,#263,.F.);
#176=ORIENTED_EDGE('',*,*,#264,.T.);
#177=ORIENTED_EDGE('',*,*,#247,.F.);
#178=ORIENTED_EDGE('',*,*,#256,.T.);
#179=ORIENTED_EDGE('',*,*,#250,.T.);
#180=ORIENTED_EDGE('',*,*,#265,.F.);
#181=ORIENTED_EDGE('',*,*,#264,.F.);
#182=ORIENTED_EDGE('',*,*,#266,.T.);
#183=ORIENTED_EDGE('',*,*,#254,.T.);
#184=ORIENTED_EDGE('',*,*,#267,.F.);
#185=ORIENTED_EDGE('',*,*,#260,.F.);
#186=ORIENTED_EDGE('',*,*,#268,.T.);
#187=ORIENTED_EDGE('',*,*,#248,.T.);
#188=ORIENTED_EDGE('',*,*,#269,.F.);
#189=ORIENTED_EDGE('',*,*,#258,.F.);
#190=ORIENTED_EDGE('',*,*,#270,.T.);
#191=ORIENTED_EDGE('',*,*,#268,.F.);
#192=ORIENTED_EDGE('',*,*,#259,.T.);
#193=ORIENTED_EDGE('',*,*,#269,.T.);
#194=ORIENTED_EDGE('',*,*,#255,.F.);
#195=ORIENTED_EDGE('',*,*,#270,.F.);
#196=ORIENTED_EDGE('',*,*,#257,.T.);
#197=ORIENTED_EDGE('',*,*,#265,.T.);
#198=ORIENTED_EDGE('',*,*,#249,.F.);
#199=ORIENTED_EDGE('',*,*,#252,.T.);
#200=ORIENTED_EDGE('',*,*,#271,.F.);
#201=ORIENTED_EDGE('',*,*,#262,.F.);
#202=ORIENTED_EDGE('',*,*,#272,.T.);
#203=ORIENTED_EDGE('',*,*,#266,.F.);
#204=ORIENTED_EDGE('',*,*,#263,.T.);
#205=ORIENTED_EDGE('',*,*,#271,.T.);
#206=ORIENTED_EDGE('',*,*,#251,.F.);
#207=ORIENTED_EDGE('',*,*,#253,.T.);
#208=ORIENTED_EDGE('',*,*,#272,.F.);
#209=ORIENTED_EDGE('',*,*,#261,.F.);
#210=ORIENTED_EDGE('',*,*,#267,.T.);
#211=ORIENTED_EDGE('',*,*,#273,.T.);
#212=ORIENTED_EDGE('',*,*,#274,.F.);
#213=ORIENTED_EDGE('',*,*,#275,.T.);
#214=ORIENTED_EDGE('',*,*,#273,.F.);
#215=ORIENTED_EDGE('',*,*,#276,.T.);
#216=ORIENTED_EDGE('',*,*,#275,.F.);
#217=ORIENTED_EDGE('',*,*,#277,.T.);
#218=ORIENTED_EDGE('',*,*,#276,.F.);
#219=ORIENTED_EDGE('',*,*,#278,.T.);
#220=ORIENTED_EDGE('',*,*,#277,.F.);
#221=ORIENTED_EDGE('',*,*,#274,.T.);
#222=ORIENTED_EDGE('',*,*,#278,.F.);
#223=VERTEX_POINT('',#447);
#224=VERTEX_POINT('',#449);
#225=VERTEX_POINT('',#450);
#226=VERTEX_POINT('',#452);
#227=VERTEX_POINT('',#454);
#228=VERTEX_POINT('',#456);
#229=VERTEX_POINT('',#458);
#230=VERTEX_POINT('',#460);
#231=VERTEX_POINT('',#462);
#232=VERTEX_POINT('',#466);
#233=VERTEX_POINT('',#468);
#234=VERTEX_POINT('',#469);
#235=VERTEX_POINT('',#471);
#236=VERTEX_POINT('',#473);
#237=VERTEX_POINT('',#475);
#238=VERTEX_POINT('',#477);
#239=VERTEX_POINT('',#479);
#240=VERTEX_POINT('',#481);
#241=VERTEX_POINT('',#502);
#242=VERTEX_POINT('',#504);
#243=VERTEX_POINT('',#511);
#244=VERTEX_POINT('',#514);
#245=VERTEX_POINT('',#517);
#246=VERTEX_POINT('',#520);
#247=EDGE_CURVE('',#223,#223,#279,.T.);
#248=EDGE_CURVE('',#224,#225,#280,.T.);
#249=EDGE_CURVE('',#224,#226,#83,.T.);
#250=EDGE_CURVE('',#227,#226,#281,.T.);
#251=EDGE_CURVE('',#227,#228,#84,.T.);
#252=EDGE_CURVE('',#229,#228,#282,.T.);
#253=EDGE_CURVE('',#230,#229,#85,.T.);
#254=EDGE_CURVE('',#231,#230,#283,.T.);
#255=EDGE_CURVE('',#231,#225,#86,.T.);
#256=EDGE_CURVE('',#232,#232,#284,.T.);
#257=EDGE_CURVE('',#233,#234,#87,.T.);
#258=EDGE_CURVE('',#233,#235,#285,.T.);
#259=EDGE_CURVE('',#236,#235,#88,.T.);
#260=EDGE_CURVE('',#236,#237,#286,.T.);
#261=EDGE_CURVE('',#237,#238,#89,.T.);
#262=EDGE_CURVE('',#238,#239,#287,.T.);
#263=EDGE_CURVE('',#240,#239,#90,.T.);
#264=EDGE_CURVE('',#240,#234,#288,.T.);
#265=EDGE_CURVE('',#234,#226,#91,.T.);
#266=EDGE_CURVE('',#240,#227,#92,.T.);
#267=EDGE_CURVE('',#237,#230,#93,.T.);
#268=EDGE_CURVE('',#236,#231,#94,.T.);
#269=EDGE_CURVE('',#235,#225,#95,.T.);
#270=EDGE_CURVE('',#233,#224,#96,.T.);
#271=EDGE_CURVE('',#239,#228,#97,.T.);
#272=EDGE_CURVE('',#238,#229,#98,.T.);
#273=EDGE_CURVE('',#241,#241,#289,.T.);
#274=EDGE_CURVE('',#242,#242,#290,.T.);
#275=EDGE_CURVE('',#243,#243,#291,.T.);
#276=EDGE_CURVE('',#244,#244,#292,.T.);
#277=EDGE_CURVE('',#245,#245,#293,.T.);
#278=EDGE_CURVE('',#246,#246,#294,.T.);
#279=CIRCLE('',#321,39.4);
#280=CIRCLE('',#322,3.00000000000001);
#281=CIRCLE('',#323,11.00525);
#282=CIRCLE('',#324,3.);
#283=CIRCLE('',#325,11.00525);
#284=CIRCLE('',#327,39.4);
#285=CIRCLE('',#328,3.00000000000001);
#286=CIRCLE('',#329,11.00525);
#287=CIRCLE('',#330,3.);
#288=CIRCLE('',#331,11.00525);
#289=CIRCLE('',#342,31.482776569579);
#290=CIRCLE('',#343,31.482776569579);
#291=CIRCLE('',#344,31.482776569579);
#292=CIRCLE('',#346,40.);
#293=CIRCLE('',#348,40.);
#294=CIRCLE('',#350,31.482776569579);
#295=PRESENTATION_LAYER_ASSIGNMENT('1','Layer 1',(#318,#319,#320));
#296=PRESENTATION_LAYER_ASSIGNMENT('2','Layer 2',(#38));
#297=PRESENTATION_LAYER_ASSIGNMENT('3','Layer 3',(#39));
#298=STYLED_ITEM('',(#303),#318);
#299=STYLED_ITEM('',(#304),#319);
#300=STYLED_ITEM('',(#305),#320);
#301=STYLED_ITEM('',(#306),#38);
#302=STYLED_ITEM('',(#307),#39);
#303=PRESENTATION_STYLE_ASSIGNMENT((#308));
#304=PRESENTATION_STYLE_ASSIGNMENT((#309));
#305=PRESENTATION_STYLE_ASSIGNMENT((#310));
#306=PRESENTATION_STYLE_ASSIGNMENT((#28));
#307=PRESENTATION_STYLE_ASSIGNMENT((#29));
#308=CURVE_STYLE('',#314,POSITIVE_LENGTH_MEASURE(0.18),#311);
#309=CURVE_STYLE('',#315,POSITIVE_LENGTH_MEASURE(0.18),#311);
#310=CURVE_STYLE('',#316,POSITIVE_LENGTH_MEASURE(0.18),#311);
#311=COLOUR_RGB('Medium Maroon',0.6,0.4,0.4);
#312=COLOUR_RGB('Medium Gray',0.490196078431373,0.490196078431373,0.490196078431373);
#313=COLOUR_RGB('Light Gray',0.8,0.8,0.8);
#314=DRAUGHTING_PRE_DEFINED_CURVE_FONT('continuous');
#315=DRAUGHTING_PRE_DEFINED_CURVE_FONT('continuous');
#316=DRAUGHTING_PRE_DEFINED_CURVE_FONT('continuous');
#317=AXIS2_PLACEMENT_3D('',#442,#353,#354);
#318=AXIS2_PLACEMENT_3D('PCS',#443,#355,#356);
#319=AXIS2_PLACEMENT_3D('MCS',#444,#357,#358);
#320=AXIS2_PLACEMENT_3D('CIP',#445,#359,#360);
#321=AXIS2_PLACEMENT_3D('',#446,#361,#362);
#322=AXIS2_PLACEMENT_3D('',#448,#363,#364);
#323=AXIS2_PLACEMENT_3D('',#453,#366,#367);
#324=AXIS2_PLACEMENT_3D('',#457,#369,#370);
#325=AXIS2_PLACEMENT_3D('',#461,#372,#373);
#326=AXIS2_PLACEMENT_3D('',#464,#375,#376);
#327=AXIS2_PLACEMENT_3D('',#465,#377,#378);
#328=AXIS2_PLACEMENT_3D('',#470,#380,#381);
#329=AXIS2_PLACEMENT_3D('',#474,#383,#384);
#330=AXIS2_PLACEMENT_3D('',#478,#386,#387);
#331=AXIS2_PLACEMENT_3D('',#482,#389,#390);
#332=AXIS2_PLACEMENT_3D('',#483,#391,#392);
#333=AXIS2_PLACEMENT_3D('',#484,#393,#394);
#334=AXIS2_PLACEMENT_3D('',#487,#397,#398);
#335=AXIS2_PLACEMENT_3D('',#490,#401,#402);
#336=AXIS2_PLACEMENT_3D('',#493,#405,#406);
#337=AXIS2_PLACEMENT_3D('',#494,#407,#408);
#338=AXIS2_PLACEMENT_3D('',#495,#409,#410);
#339=AXIS2_PLACEMENT_3D('',#498,#413,#414);
#340=AXIS2_PLACEMENT_3D('',#499,#415,#416);
#341=AXIS2_PLACEMENT_3D('',#500,#417,#418);
#342=AXIS2_PLACEMENT_3D('',#501,#419,#420);
#343=AXIS2_PLACEMENT_3D('',#503,#421,#422);
#344=AXIS2_PLACEMENT_3D('',#510,#424,#425);
#345=AXIS2_PLACEMENT_3D('',#512,#426,#427);
#346=AXIS2_PLACEMENT_3D('',#513,#428,#429);
#347=AXIS2_PLACEMENT_3D('',#515,#430,#431);
#348=AXIS2_PLACEMENT_3D('',#516,#432,#433);
#349=AXIS2_PLACEMENT_3D('',#518,#434,#435);
#350=AXIS2_PLACEMENT_3D('',#519,#436,#437);
#351=AXIS2_PLACEMENT_3D('',#521,#438,#439);
#352=AXIS2_PLACEMENT_3D('',#522,#440,#441);
#353=DIRECTION('',(0.,0.,1.));
#354=DIRECTION('',(1.,0.,0.));
#355=DIRECTION('',(0.,0.,1.));
#356=DIRECTION('',(1.,0.,0.));
#357=DIRECTION('',(0.,0.,1.));
#358=DIRECTION('',(1.,0.,0.));
#359=DIRECTION('',(0.,0.,1.));
#360=DIRECTION('',(1.,0.,0.));
#361=DIRECTION('',(0.,0.,1.));
#362=DIRECTION('',(-1.,6.12323399573677E-17,0.));
#363=DIRECTION('',(0.,0.,1.));
#364=DIRECTION('',(0.,1.,0.));
#365=DIRECTION('',(-1.,-1.67198180342641E-15,0.));
#366=DIRECTION('',(0.,0.,1.));
#367=DIRECTION('',(0.,1.,0.));
#368=DIRECTION('',(-0.866025403784439,-0.499999999999999,0.));
#369=DIRECTION('',(0.,0.,1.));
#370=DIRECTION('',(0.,1.,0.));
#371=DIRECTION('',(-0.866025403784438,-0.500000000000001,0.));
#372=DIRECTION('',(0.,0.,1.));
#373=DIRECTION('',(0.,1.,0.));
#374=DIRECTION('',(1.,-1.39331816952201E-15,0.));
#375=DIRECTION('',(0.,0.,1.));
#376=DIRECTION('',(0.,1.,0.));
#377=DIRECTION('',(0.,0.,1.));
#378=DIRECTION('',(-1.,6.12323399573677E-17,0.));
#379=DIRECTION('',(-1.,-1.67198180342641E-15,0.));
#380=DIRECTION('',(0.,0.,1.));
#381=DIRECTION('',(0.,1.,0.));
#382=DIRECTION('',(1.,-1.39331816952201E-15,0.));
#383=DIRECTION('',(0.,0.,1.));
#384=DIRECTION('',(0.,1.,0.));
#385=DIRECTION('',(-0.866025403784438,-0.500000000000001,0.));
#386=DIRECTION('',(0.,0.,1.));
#387=DIRECTION('',(0.,1.,0.));
#388=DIRECTION('',(-0.866025403784439,-0.499999999999999,0.));
#389=DIRECTION('',(0.,0.,1.));
#390=DIRECTION('',(0.,1.,0.));
#391=DIRECTION('',(0.,0.,1.));
#392=DIRECTION('',(0.,1.,0.));
#393=DIRECTION('',(0.,0.,-1.));
#394=DIRECTION('',(0.,-1.,0.));
#395=DIRECTION('',(0.,0.,1.));
#396=DIRECTION('',(0.,0.,1.));
#397=DIRECTION('',(0.,0.,1.));
#398=DIRECTION('',(0.,1.,0.));
#399=DIRECTION('',(0.,0.,1.));
#400=DIRECTION('',(0.,0.,1.));
#401=DIRECTION('',(0.,0.,1.));
#402=DIRECTION('',(0.,1.,0.));
#403=DIRECTION('',(0.,0.,1.));
#404=DIRECTION('',(0.,0.,1.));
#405=DIRECTION('',(0.,0.,1.));
#406=DIRECTION('',(0.,1.,0.));
#407=DIRECTION('',(-1.39331816952201E-15,-1.,0.));
#408=DIRECTION('',(1.,-1.39341663207837E-15,0.));
#409=DIRECTION('',(-1.67198180342641E-15,1.,0.));
#410=DIRECTION('',(-1.,-1.67183974997265E-15,0.));
#411=DIRECTION('',(0.,0.,1.));
#412=DIRECTION('',(0.,0.,1.));
#413=DIRECTION('',(0.,0.,1.));
#414=DIRECTION('',(0.,1.,0.));
#415=DIRECTION('',(-0.499999999999999,0.866025403784439,0.));
#416=DIRECTION('',(-0.866025403784439,-0.499999999999999,0.));
#417=DIRECTION('',(-0.500000000000001,0.866025403784438,0.));
#418=DIRECTION('',(-0.866025403784438,-0.500000000000001,0.));
#419=DIRECTION('',(0.,0.,-1.));
#420=DIRECTION('',(0.,-1.,0.));
#421=DIRECTION('',(0.,0.,-1.));
#422=DIRECTION('',(0.,-1.,0.));
#423=DIRECTION('',(0.,0.,-1.));
#424=DIRECTION('',(0.,0.,-1.));
#425=DIRECTION('',(-1.,0.,0.));
#426=DIRECTION('',(0.,0.,-1.));
#427=DIRECTION('',(0.,-1.,0.));
#428=DIRECTION('',(0.,0.,-1.));
#429=DIRECTION('',(-1.,0.,0.));
#430=DIRECTION('',(0.,0.,-1.));
#431=DIRECTION('',(0.,-1.,0.));
#432=DIRECTION('',(0.,0.,-1.));
#433=DIRECTION('',(1.,0.,0.));
#434=DIRECTION('',(0.,0.,-1.));
#435=DIRECTION('',(0.,-1.,0.));
#436=DIRECTION('',(0.,0.,-1.));
#437=DIRECTION('',(1.,0.,0.));
#438=DIRECTION('',(0.,0.,1.));
#439=DIRECTION('',(0.,1.,0.));
#440=DIRECTION('',(0.,0.,-1.));
#441=DIRECTION('',(0.,-1.,0.));
#442=CARTESIAN_POINT('',(0.,0.,0.));
#443=CARTESIAN_POINT('',(0.,0.,0.));
#444=CARTESIAN_POINT('',(0.,0.,0.));
#445=CARTESIAN_POINT('',(-4.44089209850063E-16,0.,-2.2));
#446=CARTESIAN_POINT('',(-4.44089209850063E-16,0.,0.));
#447=CARTESIAN_POINT('',(-39.4,2.41255419432029E-15,0.));
#448=CARTESIAN_POINT('',(12.14475,1.04083408558608E-14,0.));
#449=CARTESIAN_POINT('',(12.14475,-3.,0.));
#450=CARTESIAN_POINT('',(12.14475,3.00000000000002,0.));
#451=CARTESIAN_POINT('',(4.57185620042921E-15,-3.00000000000002,0.));
#452=CARTESIAN_POINT('',(10.5884620017498,-3.00000000000001,0.));
#453=CARTESIAN_POINT('',(0.,0.,0.));
#454=CARTESIAN_POINT('',(-7.66987708052158,-7.89230721222824,0.));
#455=CARTESIAN_POINT('',(1.50000000000001,-2.59807621135334,0.));
#456=CARTESIAN_POINT('',(-9.01766202261106,-8.67045121135332,0.));
#457=CARTESIAN_POINT('',(-10.5176620226111,-6.07237500000001,0.));
#458=CARTESIAN_POINT('',(-12.0176620226111,-3.47429878864669,0.));
#459=CARTESIAN_POINT('',(-1.50000000000001,2.59807621135332,0.));
#460=CARTESIAN_POINT('',(-10.6698770805216,-2.69615478952161,0.));
#461=CARTESIAN_POINT('',(0.,0.,0.));
#462=CARTESIAN_POINT('',(10.5884620017498,2.99999999999999,0.));
#463=CARTESIAN_POINT('',(3.73586529871599E-15,3.00000000000002,0.));
#464=CARTESIAN_POINT('',(-4.44089209850063E-16,0.,0.));
#465=CARTESIAN_POINT('',(-4.44089209850063E-16,0.,-1.9));
#466=CARTESIAN_POINT('',(-39.4,2.41255419432029E-15,-1.9));
#467=CARTESIAN_POINT('',(4.57185620042921E-15,-3.00000000000002,-1.9));
#468=CARTESIAN_POINT('',(12.14475,-3.,-1.9));
#469=CARTESIAN_POINT('',(10.5884620017498,-3.00000000000001,-1.9));
#470=CARTESIAN_POINT('',(12.14475,1.04083408558608E-14,-1.9));
#471=CARTESIAN_POINT('',(12.14475,3.00000000000002,-1.9));
#472=CARTESIAN_POINT('',(3.73586529871599E-15,3.00000000000002,-1.9));
#473=CARTESIAN_POINT('',(10.5884620017498,2.99999999999999,-1.9));
#474=CARTESIAN_POINT('',(0.,0.,-1.9));
#475=CARTESIAN_POINT('',(-10.6698770805216,-2.69615478952161,-1.9));
#476=CARTESIAN_POINT('',(-1.50000000000001,2.59807621135332,-1.9));
#477=CARTESIAN_POINT('',(-12.0176620226111,-3.47429878864669,-1.9));
#478=CARTESIAN_POINT('',(-10.5176620226111,-6.07237500000001,-1.9));
#479=CARTESIAN_POINT('',(-9.01766202261106,-8.67045121135332,-1.9));
#480=CARTESIAN_POINT('',(1.50000000000001,-2.59807621135334,-1.9));
#481=CARTESIAN_POINT('',(-7.66987708052158,-7.89230721222824,-1.9));
#482=CARTESIAN_POINT('',(0.,0.,-1.9));
#483=CARTESIAN_POINT('',(-4.44089209850063E-16,0.,-1.9));
#484=CARTESIAN_POINT('',(-4.44089209850063E-16,0.,0.));
#485=CARTESIAN_POINT('',(10.5884620017498,-3.00000000000001,-5.2));
#486=CARTESIAN_POINT('',(-7.66987708052158,-7.89230721222824,-5.2));
#487=CARTESIAN_POINT('',(0.,0.,-5.2));
#488=CARTESIAN_POINT('',(-10.6698770805216,-2.69615478952161,-5.2));
#489=CARTESIAN_POINT('',(10.5884620017498,2.99999999999999,-5.2));
#490=CARTESIAN_POINT('',(0.,0.,-5.2));
#491=CARTESIAN_POINT('',(12.14475,3.00000000000002,-5.2));
#492=CARTESIAN_POINT('',(12.14475,-3.,-5.2));
#493=CARTESIAN_POINT('',(12.14475,1.04083408558608E-14,-5.2));
#494=CARTESIAN_POINT('',(10.5884620017498,3.,-5.2));
#495=CARTESIAN_POINT('',(12.14475,-3.,-5.2));
#496=CARTESIAN_POINT('',(-9.01766202261106,-8.67045121135332,-5.2));
#497=CARTESIAN_POINT('',(-12.0176620226111,-3.47429878864669,-5.2));
#498=CARTESIAN_POINT('',(-10.5176620226111,-6.07237500000001,-5.2));
#499=CARTESIAN_POINT('',(-7.66987708052158,-7.89230721222824,-5.2));
#500=CARTESIAN_POINT('',(-10.6698770805216,-2.69615478952161,-5.2));
#501=CARTESIAN_POINT('',(-4.44089209850063E-16,0.,-1.12579310226203));
#502=CARTESIAN_POINT('',(-4.44089209850063E-16,-31.482776569579,-1.12579310226203));
#503=CARTESIAN_POINT('',(-4.44089209850063E-16,0.,-0.774206897737968));
#504=CARTESIAN_POINT('',(-4.44089209850063E-16,-31.482776569579,-0.774206897737968));
#505=CARTESIAN_POINT('',(-30.3436315357213,8.39221340019527,-0.774206897737968));
#506=CARTESIAN_POINT('',(-30.3588735376525,8.38510593796913,-0.890293447231325));
#507=CARTESIAN_POINT('',(-30.3588735376525,8.38510593796913,-1.00970655276868));
#508=CARTESIAN_POINT('',(-30.3436315357213,8.39221340019527,-1.12579310226203));
#509=CARTESIAN_POINT('',(-4.44089209850063E-16,0.,-0.95));
#510=CARTESIAN_POINT('',(-4.44089209850063E-16,0.,-2.2));
#511=CARTESIAN_POINT('',(-4.44089209850063E-16,-31.482776569579,-2.2));
#512=CARTESIAN_POINT('',(-4.44089209850063E-16,0.,-0.95));
#513=CARTESIAN_POINT('',(-4.44089209850063E-16,0.,-2.2));
#514=CARTESIAN_POINT('',(-4.44089209850063E-16,-40.,-2.2));
#515=CARTESIAN_POINT('',(-30.3436315357213,8.39221340019527,-2.2));
#516=CARTESIAN_POINT('',(-4.44089209850063E-16,0.,0.3));
#517=CARTESIAN_POINT('',(-4.44089209850063E-16,40.,0.3));
#518=CARTESIAN_POINT('',(-4.44089209850063E-16,0.,-0.95));
#519=CARTESIAN_POINT('',(-4.44089209850063E-16,0.,0.3));
#520=CARTESIAN_POINT('',(-4.44089209850063E-16,-31.482776569579,0.3));
#521=CARTESIAN_POINT('',(-40.627916991399,3.59657233356067,0.3));
#522=CARTESIAN_POINT('',(-4.44089209850063E-16,0.,-0.95));
#523=MECHANICAL_DESIGN_GEOMETRIC_PRESENTATION_REPRESENTATION('',(#298,#299,
#300,#301,#302),#524);
#524=(
GEOMETRIC_REPRESENTATION_CONTEXT(3)
GLOBAL_UNCERTAINTY_ASSIGNED_CONTEXT((#525))
GLOBAL_UNIT_ASSIGNED_CONTEXT((#531,#527,#526))
REPRESENTATION_CONTEXT('335.10-080-02','TOP_LEVEL_ASSEMBLY_PART')
);
#525=UNCERTAINTY_MEASURE_WITH_UNIT(LENGTH_MEASURE(2.E-5),#531,
'DISTANCE_ACCURACY_VALUE','Maximum Tolerance applied to model');
#526=(
NAMED_UNIT(*)
SI_UNIT($,.STERADIAN.)
SOLID_ANGLE_UNIT()
);
#527=(
CONVERSION_BASED_UNIT('DEGREE',#529)
NAMED_UNIT(#528)
PLANE_ANGLE_UNIT()
);
#528=DIMENSIONAL_EXPONENTS(0.,0.,0.,0.,0.,0.,0.);
#529=PLANE_ANGLE_MEASURE_WITH_UNIT(PLANE_ANGLE_MEASURE(0.0174532925),#530);
#530=(
NAMED_UNIT(*)
PLANE_ANGLE_UNIT()
SI_UNIT($,.RADIAN.)
);
#531=(
LENGTH_UNIT()
NAMED_UNIT(*)
SI_UNIT(.MILLI.,.METRE.)
);
ENDSEC;
END-ISO-10303-21;
