ISO-10303-21;
HEADER;
/* Generated by software containing ST-Developer
 * from STEP Tools, Inc. (www.steptools.com) 
 */
/* OPTION: using custom schema-name function */

FILE_DESCRIPTION(
/* description */ (''),
/* implementation_level */ '2;1');

FILE_NAME(
/* name */ '335.10-05.00-4.stp',
/* time_stamp */ '2017-09-14T10:21:11+06:00',
/* author */ (''),
/* organization */ (''),
/* preprocessor_version */ 'ST-DEVELOPER v16',
/* originating_system */ 'SIEMENS PLM Software NX 11.0',
/* authorisation */ '');

FILE_SCHEMA (('AUTOMOTIVE_DESIGN { 1 0 10303 214 3 1 1 1 }'));
ENDSEC;

DATA;
#10=CONSTRUCTIVE_GEOMETRY_REPRESENTATION_RELATIONSHIP(
'supplemental geometry','',#24,#11);
#11=CONSTRUCTIVE_GEOMETRY_REPRESENTATION('supplemental geometry',(#398,
#399,#400),#660);
#12=SHAPE_REPRESENTATION_RELATIONSHIP('None',
'relationship between 335.10-05.00-4-None and 335.10-05.00-4-None',#24,
#13);
#13=ADVANCED_BREP_SHAPE_REPRESENTATION('335.10-05.00-4-None',(#38,#39),
#660);
#14=SHAPE_DEFINITION_REPRESENTATION(#15,#24);
#15=PRODUCT_DEFINITION_SHAPE('','',#16);
#16=PRODUCT_DEFINITION(' ','',#18,#17);
#17=PRODUCT_DEFINITION_CONTEXT('part definition',#23,'design');
#18=PRODUCT_DEFINITION_FORMATION_WITH_SPECIFIED_SOURCE(' ',' ',#20,
 .NOT_KNOWN.);
#19=PRODUCT_RELATED_PRODUCT_CATEGORY('part','',(#20));
#20=PRODUCT('335.10-05.00-4','335.10-05.00-4',' ',(#21));
#21=PRODUCT_CONTEXT(' ',#23,'mechanical');
#22=APPLICATION_PROTOCOL_DEFINITION('international standard',
'automotive_design',2010,#23);
#23=APPLICATION_CONTEXT(
'core data for automotive mechanical design processes');
#24=SHAPE_REPRESENTATION('335.10-05.00-4-None',(#397),#660);
#25=SURFACE_OF_REVOLUTION('',#27,#26);
#26=AXIS1_PLACEMENT('',#651,#550);
#27=ELLIPSE('',#440,0.750000000009912,0.615234760103446);
#28=SURFACE_STYLE_USAGE(.BOTH.,#30);
#29=SURFACE_STYLE_USAGE(.BOTH.,#31);
#30=SURFACE_SIDE_STYLE('',(#32));
#31=SURFACE_SIDE_STYLE('',(#33));
#32=SURFACE_STYLE_FILL_AREA(#34);
#33=SURFACE_STYLE_FILL_AREA(#35);
#34=FILL_AREA_STYLE('',(#36));
#35=FILL_AREA_STYLE('',(#37));
#36=FILL_AREA_STYLE_COLOUR('',#392);
#37=FILL_AREA_STYLE_COLOUR('',#393);
#38=MANIFOLD_SOLID_BREP('NOCUT',#40);
#39=MANIFOLD_SOLID_BREP('CUT',#41);
#40=CLOSED_SHELL('',(#90,#91,#92,#93,#94,#95,#96,#97,#98,#99,#100,#101,
#102,#103,#104));
#41=CLOSED_SHELL('',(#105,#106,#107,#108,#109,#110));
#42=FACE_OUTER_BOUND('',#171,.T.);
#43=FACE_OUTER_BOUND('',#172,.T.);
#44=FACE_OUTER_BOUND('',#173,.T.);
#45=FACE_OUTER_BOUND('',#174,.T.);
#46=FACE_OUTER_BOUND('',#175,.T.);
#47=FACE_OUTER_BOUND('',#176,.T.);
#48=FACE_OUTER_BOUND('',#177,.T.);
#49=FACE_OUTER_BOUND('',#178,.T.);
#50=PLANE('',#412);
#51=PLANE('',#421);
#52=PLANE('',#422);
#53=PLANE('',#423);
#54=PLANE('',#425);
#55=PLANE('',#426);
#56=PLANE('',#436);
#57=PLANE('',#444);
#58=LINE('',#581,#74);
#59=LINE('',#585,#75);
#60=LINE('',#589,#76);
#61=LINE('',#593,#77);
#62=LINE('',#603,#78);
#63=LINE('',#608,#79);
#64=LINE('',#612,#80);
#65=LINE('',#616,#81);
#66=LINE('',#620,#82);
#67=LINE('',#621,#83);
#68=LINE('',#623,#84);
#69=LINE('',#624,#85);
#70=LINE('',#627,#86);
#71=LINE('',#628,#87);
#72=LINE('',#630,#88);
#73=LINE('',#631,#89);
#74=VECTOR('',#470,1.);
#75=VECTOR('',#473,1.);
#76=VECTOR('',#476,1.);
#77=VECTOR('',#479,1.);
#78=VECTOR('',#490,1.);
#79=VECTOR('',#493,1.);
#80=VECTOR('',#496,1.);
#81=VECTOR('',#499,1.);
#82=VECTOR('',#504,1.);
#83=VECTOR('',#505,1.);
#84=VECTOR('',#508,1.);
#85=VECTOR('',#509,1.);
#86=VECTOR('',#514,1.);
#87=VECTOR('',#515,1.);
#88=VECTOR('',#518,1.);
#89=VECTOR('',#519,1.);
#90=ADVANCED_FACE('',(#123,#124),#111,.T.);
#91=ADVANCED_FACE('',(#125,#126,#127,#128,#129,#130),#50,.T.);
#92=ADVANCED_FACE('',(#131,#132,#133,#134,#135,#136),#51,.F.);
#93=ADVANCED_FACE('',(#42),#52,.T.);
#94=ADVANCED_FACE('',(#43),#53,.F.);
#95=ADVANCED_FACE('',(#44),#112,.F.);
#96=ADVANCED_FACE('',(#45),#54,.T.);
#97=ADVANCED_FACE('',(#46),#55,.T.);
#98=ADVANCED_FACE('',(#47),#113,.F.);
#99=ADVANCED_FACE('',(#48),#114,.F.);
#100=ADVANCED_FACE('',(#49),#115,.F.);
#101=ADVANCED_FACE('',(#137,#138),#116,.F.);
#102=ADVANCED_FACE('',(#139,#140),#117,.F.);
#103=ADVANCED_FACE('',(#141,#142),#118,.F.);
#104=ADVANCED_FACE('',(#143,#144),#119,.F.);
#105=ADVANCED_FACE('',(#145,#146),#56,.F.);
#106=ADVANCED_FACE('',(#147,#148),#120,.F.);
#107=ADVANCED_FACE('',(#149,#150),#25,.T.);
#108=ADVANCED_FACE('',(#151,#152),#121,.F.);
#109=ADVANCED_FACE('',(#153,#154),#57,.F.);
#110=ADVANCED_FACE('',(#155,#156),#122,.T.);
#111=CYLINDRICAL_SURFACE('',#403,62.3);
#112=CYLINDRICAL_SURFACE('',#424,3.9625);
#113=CYLINDRICAL_SURFACE('',#427,3.9625);
#114=CYLINDRICAL_SURFACE('',#428,15.88125);
#115=CYLINDRICAL_SURFACE('',#429,15.88125);
#116=CYLINDRICAL_SURFACE('',#430,3.);
#117=CYLINDRICAL_SURFACE('',#431,3.);
#118=CYLINDRICAL_SURFACE('',#432,3.);
#119=CYLINDRICAL_SURFACE('',#433,3.);
#120=CYLINDRICAL_SURFACE('',#438,54.1993814684507);
#121=CYLINDRICAL_SURFACE('',#442,54.1993814684507);
#122=CYLINDRICAL_SURFACE('',#445,63.5);
#123=FACE_BOUND('',#157,.T.);
#124=FACE_BOUND('',#158,.T.);
#125=FACE_BOUND('',#159,.T.);
#126=FACE_BOUND('',#160,.T.);
#127=FACE_BOUND('',#161,.T.);
#128=FACE_BOUND('',#162,.T.);
#129=FACE_BOUND('',#163,.T.);
#130=FACE_BOUND('',#164,.T.);
#131=FACE_BOUND('',#165,.T.);
#132=FACE_BOUND('',#166,.T.);
#133=FACE_BOUND('',#167,.T.);
#134=FACE_BOUND('',#168,.T.);
#135=FACE_BOUND('',#169,.T.);
#136=FACE_BOUND('',#170,.T.);
#137=FACE_BOUND('',#179,.T.);
#138=FACE_BOUND('',#180,.T.);
#139=FACE_BOUND('',#181,.T.);
#140=FACE_BOUND('',#182,.T.);
#141=FACE_BOUND('',#183,.T.);
#142=FACE_BOUND('',#184,.T.);
#143=FACE_BOUND('',#185,.T.);
#144=FACE_BOUND('',#186,.T.);
#145=FACE_BOUND('',#187,.T.);
#146=FACE_BOUND('',#188,.T.);
#147=FACE_BOUND('',#189,.T.);
#148=FACE_BOUND('',#190,.T.);
#149=FACE_BOUND('',#191,.T.);
#150=FACE_BOUND('',#192,.T.);
#151=FACE_BOUND('',#193,.T.);
#152=FACE_BOUND('',#194,.T.);
#153=FACE_BOUND('',#195,.T.);
#154=FACE_BOUND('',#196,.T.);
#155=FACE_BOUND('',#197,.T.);
#156=FACE_BOUND('',#198,.T.);
#157=EDGE_LOOP('',(#199));
#158=EDGE_LOOP('',(#200));
#159=EDGE_LOOP('',(#201));
#160=EDGE_LOOP('',(#202));
#161=EDGE_LOOP('',(#203));
#162=EDGE_LOOP('',(#204));
#163=EDGE_LOOP('',(#205));
#164=EDGE_LOOP('',(#206,#207,#208,#209,#210,#211,#212,#213));
#165=EDGE_LOOP('',(#214));
#166=EDGE_LOOP('',(#215));
#167=EDGE_LOOP('',(#216));
#168=EDGE_LOOP('',(#217));
#169=EDGE_LOOP('',(#218));
#170=EDGE_LOOP('',(#219,#220,#221,#222,#223,#224,#225,#226));
#171=EDGE_LOOP('',(#227,#228,#229,#230));
#172=EDGE_LOOP('',(#231,#232,#233,#234));
#173=EDGE_LOOP('',(#235,#236,#237,#238));
#174=EDGE_LOOP('',(#239,#240,#241,#242));
#175=EDGE_LOOP('',(#243,#244,#245,#246));
#176=EDGE_LOOP('',(#247,#248,#249,#250));
#177=EDGE_LOOP('',(#251,#252,#253,#254));
#178=EDGE_LOOP('',(#255,#256,#257,#258));
#179=EDGE_LOOP('',(#259));
#180=EDGE_LOOP('',(#260));
#181=EDGE_LOOP('',(#261));
#182=EDGE_LOOP('',(#262));
#183=EDGE_LOOP('',(#263));
#184=EDGE_LOOP('',(#264));
#185=EDGE_LOOP('',(#265));
#186=EDGE_LOOP('',(#266));
#187=EDGE_LOOP('',(#267));
#188=EDGE_LOOP('',(#268));
#189=EDGE_LOOP('',(#269));
#190=EDGE_LOOP('',(#270));
#191=EDGE_LOOP('',(#271));
#192=EDGE_LOOP('',(#272));
#193=EDGE_LOOP('',(#273));
#194=EDGE_LOOP('',(#274));
#195=EDGE_LOOP('',(#275));
#196=EDGE_LOOP('',(#276));
#197=EDGE_LOOP('',(#277));
#198=EDGE_LOOP('',(#278));
#199=ORIENTED_EDGE('',*,*,#311,.F.);
#200=ORIENTED_EDGE('',*,*,#312,.T.);
#201=ORIENTED_EDGE('',*,*,#311,.T.);
#202=ORIENTED_EDGE('',*,*,#313,.F.);
#203=ORIENTED_EDGE('',*,*,#314,.F.);
#204=ORIENTED_EDGE('',*,*,#315,.F.);
#205=ORIENTED_EDGE('',*,*,#316,.F.);
#206=ORIENTED_EDGE('',*,*,#317,.F.);
#207=ORIENTED_EDGE('',*,*,#318,.T.);
#208=ORIENTED_EDGE('',*,*,#319,.F.);
#209=ORIENTED_EDGE('',*,*,#320,.T.);
#210=ORIENTED_EDGE('',*,*,#321,.F.);
#211=ORIENTED_EDGE('',*,*,#322,.F.);
#212=ORIENTED_EDGE('',*,*,#323,.F.);
#213=ORIENTED_EDGE('',*,*,#324,.T.);
#214=ORIENTED_EDGE('',*,*,#312,.F.);
#215=ORIENTED_EDGE('',*,*,#325,.T.);
#216=ORIENTED_EDGE('',*,*,#326,.T.);
#217=ORIENTED_EDGE('',*,*,#327,.T.);
#218=ORIENTED_EDGE('',*,*,#328,.T.);
#219=ORIENTED_EDGE('',*,*,#329,.F.);
#220=ORIENTED_EDGE('',*,*,#330,.T.);
#221=ORIENTED_EDGE('',*,*,#331,.F.);
#222=ORIENTED_EDGE('',*,*,#332,.T.);
#223=ORIENTED_EDGE('',*,*,#333,.T.);
#224=ORIENTED_EDGE('',*,*,#334,.T.);
#225=ORIENTED_EDGE('',*,*,#335,.F.);
#226=ORIENTED_EDGE('',*,*,#336,.T.);
#227=ORIENTED_EDGE('',*,*,#337,.F.);
#228=ORIENTED_EDGE('',*,*,#335,.T.);
#229=ORIENTED_EDGE('',*,*,#338,.T.);
#230=ORIENTED_EDGE('',*,*,#320,.F.);
#231=ORIENTED_EDGE('',*,*,#322,.T.);
#232=ORIENTED_EDGE('',*,*,#339,.F.);
#233=ORIENTED_EDGE('',*,*,#333,.F.);
#234=ORIENTED_EDGE('',*,*,#340,.T.);
#235=ORIENTED_EDGE('',*,*,#321,.T.);
#236=ORIENTED_EDGE('',*,*,#338,.F.);
#237=ORIENTED_EDGE('',*,*,#334,.F.);
#238=ORIENTED_EDGE('',*,*,#339,.T.);
#239=ORIENTED_EDGE('',*,*,#341,.F.);
#240=ORIENTED_EDGE('',*,*,#331,.T.);
#241=ORIENTED_EDGE('',*,*,#342,.T.);
#242=ORIENTED_EDGE('',*,*,#324,.F.);
#243=ORIENTED_EDGE('',*,*,#343,.F.);
#244=ORIENTED_EDGE('',*,*,#329,.T.);
#245=ORIENTED_EDGE('',*,*,#344,.T.);
#246=ORIENTED_EDGE('',*,*,#318,.F.);
#247=ORIENTED_EDGE('',*,*,#317,.T.);
#248=ORIENTED_EDGE('',*,*,#342,.F.);
#249=ORIENTED_EDGE('',*,*,#330,.F.);
#250=ORIENTED_EDGE('',*,*,#343,.T.);
#251=ORIENTED_EDGE('',*,*,#323,.T.);
#252=ORIENTED_EDGE('',*,*,#340,.F.);
#253=ORIENTED_EDGE('',*,*,#332,.F.);
#254=ORIENTED_EDGE('',*,*,#341,.T.);
#255=ORIENTED_EDGE('',*,*,#319,.T.);
#256=ORIENTED_EDGE('',*,*,#344,.F.);
#257=ORIENTED_EDGE('',*,*,#336,.F.);
#258=ORIENTED_EDGE('',*,*,#337,.T.);
#259=ORIENTED_EDGE('',*,*,#316,.T.);
#260=ORIENTED_EDGE('',*,*,#328,.F.);
#261=ORIENTED_EDGE('',*,*,#315,.T.);
#262=ORIENTED_EDGE('',*,*,#327,.F.);
#263=ORIENTED_EDGE('',*,*,#314,.T.);
#264=ORIENTED_EDGE('',*,*,#326,.F.);
#265=ORIENTED_EDGE('',*,*,#313,.T.);
#266=ORIENTED_EDGE('',*,*,#325,.F.);
#267=ORIENTED_EDGE('',*,*,#345,.F.);
#268=ORIENTED_EDGE('',*,*,#346,.T.);
#269=ORIENTED_EDGE('',*,*,#347,.F.);
#270=ORIENTED_EDGE('',*,*,#345,.T.);
#271=ORIENTED_EDGE('',*,*,#348,.F.);
#272=ORIENTED_EDGE('',*,*,#347,.T.);
#273=ORIENTED_EDGE('',*,*,#349,.F.);
#274=ORIENTED_EDGE('',*,*,#348,.T.);
#275=ORIENTED_EDGE('',*,*,#350,.F.);
#276=ORIENTED_EDGE('',*,*,#349,.T.);
#277=ORIENTED_EDGE('',*,*,#346,.F.);
#278=ORIENTED_EDGE('',*,*,#350,.T.);
#279=VERTEX_POINT('',#566);
#280=VERTEX_POINT('',#568);
#281=VERTEX_POINT('',#571);
#282=VERTEX_POINT('',#573);
#283=VERTEX_POINT('',#575);
#284=VERTEX_POINT('',#577);
#285=VERTEX_POINT('',#579);
#286=VERTEX_POINT('',#580);
#287=VERTEX_POINT('',#582);
#288=VERTEX_POINT('',#584);
#289=VERTEX_POINT('',#586);
#290=VERTEX_POINT('',#588);
#291=VERTEX_POINT('',#590);
#292=VERTEX_POINT('',#592);
#293=VERTEX_POINT('',#596);
#294=VERTEX_POINT('',#598);
#295=VERTEX_POINT('',#600);
#296=VERTEX_POINT('',#602);
#297=VERTEX_POINT('',#604);
#298=VERTEX_POINT('',#605);
#299=VERTEX_POINT('',#607);
#300=VERTEX_POINT('',#609);
#301=VERTEX_POINT('',#611);
#302=VERTEX_POINT('',#613);
#303=VERTEX_POINT('',#615);
#304=VERTEX_POINT('',#617);
#305=VERTEX_POINT('',#641);
#306=VERTEX_POINT('',#643);
#307=VERTEX_POINT('',#646);
#308=VERTEX_POINT('',#649);
#309=VERTEX_POINT('',#653);
#310=VERTEX_POINT('',#656);
#311=EDGE_CURVE('',#279,#279,#351,.T.);
#312=EDGE_CURVE('',#280,#280,#352,.T.);
#313=EDGE_CURVE('',#281,#281,#353,.T.);
#314=EDGE_CURVE('',#282,#282,#354,.T.);
#315=EDGE_CURVE('',#283,#283,#355,.T.);
#316=EDGE_CURVE('',#284,#284,#356,.T.);
#317=EDGE_CURVE('',#285,#286,#357,.T.);
#318=EDGE_CURVE('',#285,#287,#58,.T.);
#319=EDGE_CURVE('',#288,#287,#358,.T.);
#320=EDGE_CURVE('',#288,#289,#59,.T.);
#321=EDGE_CURVE('',#290,#289,#359,.T.);
#322=EDGE_CURVE('',#291,#290,#60,.T.);
#323=EDGE_CURVE('',#292,#291,#360,.T.);
#324=EDGE_CURVE('',#292,#286,#61,.T.);
#325=EDGE_CURVE('',#293,#293,#361,.T.);
#326=EDGE_CURVE('',#294,#294,#362,.T.);
#327=EDGE_CURVE('',#295,#295,#363,.T.);
#328=EDGE_CURVE('',#296,#296,#364,.T.);
#329=EDGE_CURVE('',#297,#298,#62,.T.);
#330=EDGE_CURVE('',#297,#299,#365,.T.);
#331=EDGE_CURVE('',#300,#299,#63,.T.);
#332=EDGE_CURVE('',#300,#301,#366,.T.);
#333=EDGE_CURVE('',#301,#302,#64,.T.);
#334=EDGE_CURVE('',#302,#303,#367,.T.);
#335=EDGE_CURVE('',#304,#303,#65,.T.);
#336=EDGE_CURVE('',#304,#298,#368,.T.);
#337=EDGE_CURVE('',#304,#288,#66,.T.);
#338=EDGE_CURVE('',#303,#289,#67,.T.);
#339=EDGE_CURVE('',#302,#290,#68,.T.);
#340=EDGE_CURVE('',#301,#291,#69,.T.);
#341=EDGE_CURVE('',#300,#292,#70,.T.);
#342=EDGE_CURVE('',#299,#286,#71,.T.);
#343=EDGE_CURVE('',#297,#285,#72,.T.);
#344=EDGE_CURVE('',#298,#287,#73,.T.);
#345=EDGE_CURVE('',#305,#305,#369,.T.);
#346=EDGE_CURVE('',#306,#306,#370,.T.);
#347=EDGE_CURVE('',#307,#307,#371,.T.);
#348=EDGE_CURVE('',#308,#308,#372,.T.);
#349=EDGE_CURVE('',#309,#309,#373,.T.);
#350=EDGE_CURVE('',#310,#310,#374,.T.);
#351=CIRCLE('',#401,62.3);
#352=CIRCLE('',#402,62.3);
#353=CIRCLE('',#404,3.);
#354=CIRCLE('',#405,3.);
#355=CIRCLE('',#406,3.);
#356=CIRCLE('',#407,3.);
#357=CIRCLE('',#408,3.9625);
#358=CIRCLE('',#409,15.88125);
#359=CIRCLE('',#410,3.9625);
#360=CIRCLE('',#411,15.88125);
#361=CIRCLE('',#413,3.);
#362=CIRCLE('',#414,3.);
#363=CIRCLE('',#415,3.);
#364=CIRCLE('',#416,3.);
#365=CIRCLE('',#417,3.9625);
#366=CIRCLE('',#418,15.88125);
#367=CIRCLE('',#419,3.9625);
#368=CIRCLE('',#420,15.88125);
#369=CIRCLE('',#434,54.1993814684507);
#370=CIRCLE('',#435,63.5);
#371=CIRCLE('',#437,54.1993814684507);
#372=CIRCLE('',#439,54.1993814684507);
#373=CIRCLE('',#441,54.1993814684507);
#374=CIRCLE('',#443,63.5);
#375=PRESENTATION_LAYER_ASSIGNMENT('1','Layer 1',(#398,#399,#400));
#376=PRESENTATION_LAYER_ASSIGNMENT('2','Layer 2',(#38));
#377=PRESENTATION_LAYER_ASSIGNMENT('3','Layer 3',(#39));
#378=STYLED_ITEM('',(#383),#398);
#379=STYLED_ITEM('',(#384),#399);
#380=STYLED_ITEM('',(#385),#400);
#381=STYLED_ITEM('',(#386),#38);
#382=STYLED_ITEM('',(#387),#39);
#383=PRESENTATION_STYLE_ASSIGNMENT((#388));
#384=PRESENTATION_STYLE_ASSIGNMENT((#389));
#385=PRESENTATION_STYLE_ASSIGNMENT((#390));
#386=PRESENTATION_STYLE_ASSIGNMENT((#28));
#387=PRESENTATION_STYLE_ASSIGNMENT((#29));
#388=CURVE_STYLE('',#394,POSITIVE_LENGTH_MEASURE(0.18),#391);
#389=CURVE_STYLE('',#395,POSITIVE_LENGTH_MEASURE(0.18),#391);
#390=CURVE_STYLE('',#396,POSITIVE_LENGTH_MEASURE(0.18),#391);
#391=COLOUR_RGB('Medium Maroon',0.6,0.4,0.4);
#392=COLOUR_RGB('Medium Gray',0.490196078431373,0.490196078431373,0.490196078431373);
#393=COLOUR_RGB('Light Gray',0.8,0.8,0.8);
#394=DRAUGHTING_PRE_DEFINED_CURVE_FONT('continuous');
#395=DRAUGHTING_PRE_DEFINED_CURVE_FONT('continuous');
#396=DRAUGHTING_PRE_DEFINED_CURVE_FONT('continuous');
#397=AXIS2_PLACEMENT_3D('',#561,#446,#447);
#398=AXIS2_PLACEMENT_3D('PCS',#562,#448,#449);
#399=AXIS2_PLACEMENT_3D('MCS',#563,#450,#451);
#400=AXIS2_PLACEMENT_3D('CIP',#564,#452,#453);
#401=AXIS2_PLACEMENT_3D('',#565,#454,#455);
#402=AXIS2_PLACEMENT_3D('',#567,#456,#457);
#403=AXIS2_PLACEMENT_3D('',#569,#458,#459);
#404=AXIS2_PLACEMENT_3D('',#570,#460,#461);
#405=AXIS2_PLACEMENT_3D('',#572,#462,#463);
#406=AXIS2_PLACEMENT_3D('',#574,#464,#465);
#407=AXIS2_PLACEMENT_3D('',#576,#466,#467);
#408=AXIS2_PLACEMENT_3D('',#578,#468,#469);
#409=AXIS2_PLACEMENT_3D('',#583,#471,#472);
#410=AXIS2_PLACEMENT_3D('',#587,#474,#475);
#411=AXIS2_PLACEMENT_3D('',#591,#477,#478);
#412=AXIS2_PLACEMENT_3D('',#594,#480,#481);
#413=AXIS2_PLACEMENT_3D('',#595,#482,#483);
#414=AXIS2_PLACEMENT_3D('',#597,#484,#485);
#415=AXIS2_PLACEMENT_3D('',#599,#486,#487);
#416=AXIS2_PLACEMENT_3D('',#601,#488,#489);
#417=AXIS2_PLACEMENT_3D('',#606,#491,#492);
#418=AXIS2_PLACEMENT_3D('',#610,#494,#495);
#419=AXIS2_PLACEMENT_3D('',#614,#497,#498);
#420=AXIS2_PLACEMENT_3D('',#618,#500,#501);
#421=AXIS2_PLACEMENT_3D('',#619,#502,#503);
#422=AXIS2_PLACEMENT_3D('',#622,#506,#507);
#423=AXIS2_PLACEMENT_3D('',#625,#510,#511);
#424=AXIS2_PLACEMENT_3D('',#626,#512,#513);
#425=AXIS2_PLACEMENT_3D('',#629,#516,#517);
#426=AXIS2_PLACEMENT_3D('',#632,#520,#521);
#427=AXIS2_PLACEMENT_3D('',#633,#522,#523);
#428=AXIS2_PLACEMENT_3D('',#634,#524,#525);
#429=AXIS2_PLACEMENT_3D('',#635,#526,#527);
#430=AXIS2_PLACEMENT_3D('',#636,#528,#529);
#431=AXIS2_PLACEMENT_3D('',#637,#530,#531);
#432=AXIS2_PLACEMENT_3D('',#638,#532,#533);
#433=AXIS2_PLACEMENT_3D('',#639,#534,#535);
#434=AXIS2_PLACEMENT_3D('',#640,#536,#537);
#435=AXIS2_PLACEMENT_3D('',#642,#538,#539);
#436=AXIS2_PLACEMENT_3D('',#644,#540,#541);
#437=AXIS2_PLACEMENT_3D('',#645,#542,#543);
#438=AXIS2_PLACEMENT_3D('',#647,#544,#545);
#439=AXIS2_PLACEMENT_3D('',#648,#546,#547);
#440=AXIS2_PLACEMENT_3D('',#650,#548,#549);
#441=AXIS2_PLACEMENT_3D('',#652,#551,#552);
#442=AXIS2_PLACEMENT_3D('',#654,#553,#554);
#443=AXIS2_PLACEMENT_3D('',#655,#555,#556);
#444=AXIS2_PLACEMENT_3D('',#657,#557,#558);
#445=AXIS2_PLACEMENT_3D('',#658,#559,#560);
#446=DIRECTION('',(0.,0.,1.));
#447=DIRECTION('',(1.,0.,0.));
#448=DIRECTION('',(0.,0.,1.));
#449=DIRECTION('',(1.,0.,0.));
#450=DIRECTION('',(0.,0.,1.));
#451=DIRECTION('',(1.,0.,0.));
#452=DIRECTION('',(0.,0.,1.));
#453=DIRECTION('',(1.,0.,0.));
#454=DIRECTION('',(0.,0.,-1.));
#455=DIRECTION('',(-1.,-6.12323399573677E-17,0.));
#456=DIRECTION('',(0.,0.,-1.));
#457=DIRECTION('',(-1.,-6.12323399573677E-17,0.));
#458=DIRECTION('',(0.,0.,1.));
#459=DIRECTION('',(0.,1.,0.));
#460=DIRECTION('',(0.,0.,-1.));
#461=DIRECTION('',(0.,-1.,0.));
#462=DIRECTION('',(0.,0.,-1.));
#463=DIRECTION('',(0.,-1.,0.));
#464=DIRECTION('',(0.,0.,-1.));
#465=DIRECTION('',(0.,-1.,0.));
#466=DIRECTION('',(0.,0.,-1.));
#467=DIRECTION('',(0.,-1.,0.));
#468=DIRECTION('',(0.,0.,-1.));
#469=DIRECTION('',(0.,-1.,0.));
#470=DIRECTION('',(-1.,-1.37279839499902E-15,0.));
#471=DIRECTION('',(0.,0.,-1.));
#472=DIRECTION('',(0.,-1.,0.));
#473=DIRECTION('',(-1.,0.,0.));
#474=DIRECTION('',(0.,0.,-1.));
#475=DIRECTION('',(0.,-1.,0.));
#476=DIRECTION('',(-1.,2.40239719124828E-15,0.));
#477=DIRECTION('',(0.,0.,-1.));
#478=DIRECTION('',(0.,-1.,0.));
#479=DIRECTION('',(1.,3.43199598749754E-16,0.));
#480=DIRECTION('',(0.,0.,-1.));
#481=DIRECTION('',(0.,-1.,0.));
#482=DIRECTION('',(0.,0.,-1.));
#483=DIRECTION('',(0.,-1.,0.));
#484=DIRECTION('',(0.,0.,-1.));
#485=DIRECTION('',(0.,-1.,0.));
#486=DIRECTION('',(0.,0.,-1.));
#487=DIRECTION('',(0.,-1.,0.));
#488=DIRECTION('',(0.,0.,-1.));
#489=DIRECTION('',(0.,-1.,0.));
#490=DIRECTION('',(-1.,-1.37279839499902E-15,0.));
#491=DIRECTION('',(0.,0.,-1.));
#492=DIRECTION('',(0.,-1.,0.));
#493=DIRECTION('',(1.,3.43199598749754E-16,0.));
#494=DIRECTION('',(0.,0.,-1.));
#495=DIRECTION('',(0.,-1.,0.));
#496=DIRECTION('',(-1.,2.40239719124828E-15,0.));
#497=DIRECTION('',(0.,0.,-1.));
#498=DIRECTION('',(0.,-1.,0.));
#499=DIRECTION('',(-1.,0.,0.));
#500=DIRECTION('',(0.,0.,-1.));
#501=DIRECTION('',(0.,-1.,0.));
#502=DIRECTION('',(0.,0.,-1.));
#503=DIRECTION('',(0.,-1.,0.));
#504=DIRECTION('',(0.,0.,-1.));
#505=DIRECTION('',(0.,0.,-1.));
#506=DIRECTION('',(0.,-1.,0.));
#507=DIRECTION('',(0.,0.,1.));
#508=DIRECTION('',(0.,0.,-1.));
#509=DIRECTION('',(0.,0.,-1.));
#510=DIRECTION('',(-2.40239719124828E-15,-1.,0.));
#511=DIRECTION('',(-1.,2.40259201422788E-15,0.));
#512=DIRECTION('',(0.,0.,-1.));
#513=DIRECTION('',(0.,-1.,0.));
#514=DIRECTION('',(0.,0.,-1.));
#515=DIRECTION('',(0.,0.,-1.));
#516=DIRECTION('',(-3.43199598749754E-16,1.,0.));
#517=DIRECTION('',(1.,3.43475248243408E-16,0.));
#518=DIRECTION('',(0.,0.,-1.));
#519=DIRECTION('',(0.,0.,-1.));
#520=DIRECTION('',(1.37279839499902E-15,-1.,0.));
#521=DIRECTION('',(-1.,-1.37303363123564E-15,0.));
#522=DIRECTION('',(0.,0.,-1.));
#523=DIRECTION('',(0.,-1.,0.));
#524=DIRECTION('',(0.,0.,-1.));
#525=DIRECTION('',(0.,-1.,0.));
#526=DIRECTION('',(0.,0.,-1.));
#527=DIRECTION('',(0.,-1.,0.));
#528=DIRECTION('',(0.,0.,-1.));
#529=DIRECTION('',(0.,-1.,0.));
#530=DIRECTION('',(0.,0.,-1.));
#531=DIRECTION('',(0.,-1.,0.));
#532=DIRECTION('',(0.,0.,-1.));
#533=DIRECTION('',(0.,-1.,0.));
#534=DIRECTION('',(0.,0.,-1.));
#535=DIRECTION('',(0.,-1.,0.));
#536=DIRECTION('',(0.,0.,-1.));
#537=DIRECTION('',(1.,0.,0.));
#538=DIRECTION('',(0.,0.,-1.));
#539=DIRECTION('',(1.,0.,0.));
#540=DIRECTION('',(0.,0.,1.));
#541=DIRECTION('',(0.,-1.,0.));
#542=DIRECTION('',(0.,0.,-1.));
#543=DIRECTION('',(0.,-1.,0.));
#544=DIRECTION('',(0.,0.,-1.));
#545=DIRECTION('',(0.,1.,0.));
#546=DIRECTION('',(0.,0.,-1.));
#547=DIRECTION('',(0.,-1.,0.));
#548=DIRECTION('',(0.624969040930204,0.780649535885842,2.51006728257258E-16));
#549=DIRECTION('',(1.07136752089829E-15,-5.36175049777429E-16,-1.));
#550=DIRECTION('',(0.,0.,-1.));
#551=DIRECTION('',(0.,0.,-1.));
#552=DIRECTION('',(-1.,0.,0.));
#553=DIRECTION('',(0.,0.,-1.));
#554=DIRECTION('',(0.,1.,0.));
#555=DIRECTION('',(0.,0.,-1.));
#556=DIRECTION('',(-1.,0.,0.));
#557=DIRECTION('',(0.,0.,-1.));
#558=DIRECTION('',(0.,1.,0.));
#559=DIRECTION('',(0.,0.,-1.));
#560=DIRECTION('',(0.,1.,0.));
#561=CARTESIAN_POINT('',(0.,0.,0.));
#562=CARTESIAN_POINT('',(0.,0.,0.));
#563=CARTESIAN_POINT('',(0.,0.,0.));
#564=CARTESIAN_POINT('',(0.,0.,-3.75));
#565=CARTESIAN_POINT('',(-4.44089209850063E-16,0.,-3.4));
#566=CARTESIAN_POINT('',(-62.3,-3.81477477934401E-15,-3.4));
#567=CARTESIAN_POINT('',(-4.44089209850063E-16,0.,0.));
#568=CARTESIAN_POINT('',(-62.3,-3.81477477934401E-15,0.));
#569=CARTESIAN_POINT('',(-4.44089209850063E-16,0.,-3.4));
#570=CARTESIAN_POINT('',(15.9099025766973,15.9099025766973,-3.4));
#571=CARTESIAN_POINT('',(15.9099025766973,12.9099025766973,-3.4));
#572=CARTESIAN_POINT('',(-15.9099025766973,15.9099025766973,-3.4));
#573=CARTESIAN_POINT('',(-15.9099025766973,12.9099025766973,-3.4));
#574=CARTESIAN_POINT('',(-15.9099025766973,-15.9099025766973,-3.4));
#575=CARTESIAN_POINT('',(-15.9099025766973,-18.9099025766973,-3.4));
#576=CARTESIAN_POINT('',(15.9099025766973,-15.9099025766973,-3.4));
#577=CARTESIAN_POINT('',(15.9099025766973,-18.9099025766973,-3.4));
#578=CARTESIAN_POINT('',(17.90625,-3.46944695195361E-15,-3.4));
#579=CARTESIAN_POINT('',(17.90625,3.9625,-3.4));
#580=CARTESIAN_POINT('',(17.90625,-3.9625,-3.4));
#581=CARTESIAN_POINT('',(-5.88380285003363E-15,3.96249999999997,-3.4));
#582=CARTESIAN_POINT('',(15.3789692539032,3.96249999999999,-3.4));
#583=CARTESIAN_POINT('',(0.,0.,-3.4));
#584=CARTESIAN_POINT('',(-15.3789692539032,3.96249999999999,-3.4));
#585=CARTESIAN_POINT('',(-4.44089209850063E-16,3.9625,-3.4));
#586=CARTESIAN_POINT('',(-17.90625,3.9625,-3.4));
#587=CARTESIAN_POINT('',(-17.90625,3.46944695195361E-15,-3.4));
#588=CARTESIAN_POINT('',(-17.90625,-3.9625,-3.4));
#589=CARTESIAN_POINT('',(-9.96358808017148E-15,-3.96250000000004,-3.4));
#590=CARTESIAN_POINT('',(-15.3789692539032,-3.9625,-3.4));
#591=CARTESIAN_POINT('',(0.,0.,-3.4));
#592=CARTESIAN_POINT('',(15.3789692539032,-3.96249999999999,-3.4));
#593=CARTESIAN_POINT('',(9.15839200195837E-16,-3.9625,-3.4));
#594=CARTESIAN_POINT('',(-4.44089209850063E-16,0.,-3.4));
#595=CARTESIAN_POINT('',(15.9099025766973,15.9099025766973,0.));
#596=CARTESIAN_POINT('',(15.9099025766973,12.9099025766973,0.));
#597=CARTESIAN_POINT('',(-15.9099025766973,15.9099025766973,0.));
#598=CARTESIAN_POINT('',(-15.9099025766973,12.9099025766973,0.));
#599=CARTESIAN_POINT('',(-15.9099025766973,-15.9099025766973,0.));
#600=CARTESIAN_POINT('',(-15.9099025766973,-18.9099025766973,0.));
#601=CARTESIAN_POINT('',(15.9099025766973,-15.9099025766973,0.));
#602=CARTESIAN_POINT('',(15.9099025766973,-18.9099025766973,0.));
#603=CARTESIAN_POINT('',(-5.88380285003363E-15,3.96249999999997,0.));
#604=CARTESIAN_POINT('',(17.90625,3.9625,0.));
#605=CARTESIAN_POINT('',(15.3789692539032,3.96249999999999,0.));
#606=CARTESIAN_POINT('',(17.90625,-3.46944695195361E-15,0.));
#607=CARTESIAN_POINT('',(17.90625,-3.9625,0.));
#608=CARTESIAN_POINT('',(9.15839200195837E-16,-3.9625,0.));
#609=CARTESIAN_POINT('',(15.3789692539032,-3.96249999999999,0.));
#610=CARTESIAN_POINT('',(0.,0.,0.));
#611=CARTESIAN_POINT('',(-15.3789692539032,-3.9625,0.));
#612=CARTESIAN_POINT('',(-9.96358808017148E-15,-3.96250000000004,0.));
#613=CARTESIAN_POINT('',(-17.90625,-3.9625,0.));
#614=CARTESIAN_POINT('',(-17.90625,3.46944695195361E-15,0.));
#615=CARTESIAN_POINT('',(-17.90625,3.9625,0.));
#616=CARTESIAN_POINT('',(-4.44089209850063E-16,3.9625,0.));
#617=CARTESIAN_POINT('',(-15.3789692539032,3.96249999999999,0.));
#618=CARTESIAN_POINT('',(0.,0.,0.));
#619=CARTESIAN_POINT('',(-4.44089209850063E-16,0.,0.));
#620=CARTESIAN_POINT('',(-15.3789692539032,3.96249999999999,3.8));
#621=CARTESIAN_POINT('',(-17.90625,3.9625,3.8));
#622=CARTESIAN_POINT('',(-15.3789692539032,3.9625,3.8));
#623=CARTESIAN_POINT('',(-17.90625,-3.9625,3.8));
#624=CARTESIAN_POINT('',(-15.3789692539032,-3.9625,3.8));
#625=CARTESIAN_POINT('',(-15.3789692539032,-3.9625,3.8));
#626=CARTESIAN_POINT('',(-17.90625,3.46944695195361E-15,3.8));
#627=CARTESIAN_POINT('',(15.3789692539032,-3.96249999999999,3.8));
#628=CARTESIAN_POINT('',(17.90625,-3.9625,3.8));
#629=CARTESIAN_POINT('',(15.3789692539032,-3.9625,3.8));
#630=CARTESIAN_POINT('',(17.90625,3.9625,3.8));
#631=CARTESIAN_POINT('',(15.3789692539032,3.96249999999999,3.8));
#632=CARTESIAN_POINT('',(17.90625,3.9625,3.8));
#633=CARTESIAN_POINT('',(17.90625,-3.46944695195361E-15,3.8));
#634=CARTESIAN_POINT('',(0.,0.,3.8));
#635=CARTESIAN_POINT('',(0.,0.,3.8));
#636=CARTESIAN_POINT('',(15.9099025766973,-15.9099025766973,3.8));
#637=CARTESIAN_POINT('',(-15.9099025766973,-15.9099025766973,3.8));
#638=CARTESIAN_POINT('',(-15.9099025766973,15.9099025766973,3.8));
#639=CARTESIAN_POINT('',(15.9099025766973,15.9099025766973,3.8));
#640=CARTESIAN_POINT('',(0.,0.,-3.75));
#641=CARTESIAN_POINT('',(-53.6191631245878,-7.90938034118251,-3.75));
#642=CARTESIAN_POINT('',(0.,0.,-3.75));
#643=CARTESIAN_POINT('',(0.,-63.5,-3.75));
#644=CARTESIAN_POINT('',(-61.3040154039598,-1.75805188345803,-3.75));
#645=CARTESIAN_POINT('',(0.,0.,-1.87579310226203));
#646=CARTESIAN_POINT('',(0.,-54.1993814684507,-1.87579310226203));
#647=CARTESIAN_POINT('',(0.,0.,0.));
#648=CARTESIAN_POINT('',(0.,0.,-1.52420689773797));
#649=CARTESIAN_POINT('',(0.,-54.1993814684507,-1.52420689773797));
#650=CARTESIAN_POINT('',(-53.1520963867633,-8.28428007641632,-1.7));
#651=CARTESIAN_POINT('',(0.,0.,0.));
#652=CARTESIAN_POINT('',(0.,0.,0.35));
#653=CARTESIAN_POINT('',(-53.6191631259943,-7.90938033164723,0.35));
#654=CARTESIAN_POINT('',(0.,0.,0.));
#655=CARTESIAN_POINT('',(0.,0.,0.35));
#656=CARTESIAN_POINT('',(0.,-63.5,0.35));
#657=CARTESIAN_POINT('',(-62.4022659685733,-0.878819179772745,0.35));
#658=CARTESIAN_POINT('',(0.,0.,0.));
#659=MECHANICAL_DESIGN_GEOMETRIC_PRESENTATION_REPRESENTATION('',(#378,#379,
#380,#381,#382),#660);
#660=(
GEOMETRIC_REPRESENTATION_CONTEXT(3)
GLOBAL_UNCERTAINTY_ASSIGNED_CONTEXT((#661))
GLOBAL_UNIT_ASSIGNED_CONTEXT((#667,#663,#662))
REPRESENTATION_CONTEXT('335.10-05','TOP_LEVEL_ASSEMBLY_PART')
);
#661=UNCERTAINTY_MEASURE_WITH_UNIT(LENGTH_MEASURE(2.E-5),#667,
'DISTANCE_ACCURACY_VALUE','Maximum Tolerance applied to model');
#662=(
NAMED_UNIT(*)
SI_UNIT($,.STERADIAN.)
SOLID_ANGLE_UNIT()
);
#663=(
CONVERSION_BASED_UNIT('DEGREE',#665)
NAMED_UNIT(#664)
PLANE_ANGLE_UNIT()
);
#664=DIMENSIONAL_EXPONENTS(0.,0.,0.,0.,0.,0.,0.);
#665=PLANE_ANGLE_MEASURE_WITH_UNIT(PLANE_ANGLE_MEASURE(0.0174532925),#666);
#666=(
NAMED_UNIT(*)
PLANE_ANGLE_UNIT()
SI_UNIT($,.RADIAN.)
);
#667=(
LENGTH_UNIT()
NAMED_UNIT(*)
SI_UNIT(.MILLI.,.METRE.)
);
ENDSEC;
END-ISO-10303-21;
