ISO-10303-21;
HEADER;
/* Generated by software containing ST-Developer
 * from STEP Tools, Inc. (www.steptools.com) 
 */
/* OPTION: using custom schema-name function */

FILE_DESCRIPTION(
/* description */ (''),
/* implementation_level */ '2;1');

FILE_NAME(
/* name */ 'A16H-SGXN11-25-R.stp',
/* time_stamp */ '2018-04-11T16:02:59+06:00',
/* author */ (''),
/* organization */ (''),
/* preprocessor_version */ 'ST-DEVELOPER v16',
/* originating_system */ 'SIEMENS PLM Software NX 11.0',
/* authorisation */ '');

FILE_SCHEMA (('AUTOMOTIVE_DESIGN { 1 0 10303 214 3 1 1 1 }'));
ENDSEC;

DATA;
#10=CONSTRUCTIVE_GEOMETRY_REPRESENTATION_RELATIONSHIP(
'supplemental geometry','',#32,#11);
#11=CONSTRUCTIVE_GEOMETRY_REPRESENTATION('supplemental geometry',(#353,
#354,#355),#592);
#12=PROPERTY_DEFINITION_REPRESENTATION(#16,#14);
#13=PROPERTY_DEFINITION_REPRESENTATION(#17,#15);
#14=REPRESENTATION('',(#18),#592);
#15=REPRESENTATION('',(#19),#592);
#16=PROPERTY_DEFINITION('pmi validation property','',#23);
#17=PROPERTY_DEFINITION('pmi validation property','',#23);
#18=VALUE_REPRESENTATION_ITEM('number of annotations',COUNT_MEASURE(0.));
#19=VALUE_REPRESENTATION_ITEM('number of views',COUNT_MEASURE(0.));
#20=SHAPE_REPRESENTATION_RELATIONSHIP('None',
'relationship between A16H-SGXN11-25-R-None and A16H-SGXN11-25-R-None',
#32,#21);
#21=ADVANCED_BREP_SHAPE_REPRESENTATION('A16H-SGXN11-25-R-None',(#84,#85,
#86),#592);
#22=SHAPE_DEFINITION_REPRESENTATION(#23,#32);
#23=PRODUCT_DEFINITION_SHAPE('','',#24);
#24=PRODUCT_DEFINITION(' ','',#26,#25);
#25=PRODUCT_DEFINITION_CONTEXT('part definition',#31,'design');
#26=PRODUCT_DEFINITION_FORMATION_WITH_SPECIFIED_SOURCE(' ',' ',#28,
 .NOT_KNOWN.);
#27=PRODUCT_RELATED_PRODUCT_CATEGORY('part','',(#28));
#28=PRODUCT('inpuA3C0zusb','inpuA3C0zusb',' ',(#29));
#29=PRODUCT_CONTEXT(' ',#31,'mechanical');
#30=APPLICATION_PROTOCOL_DEFINITION('international standard',
'automotive_design',2010,#31);
#31=APPLICATION_CONTEXT(
'core data for automotive mechanical design processes');
#32=SHAPE_REPRESENTATION('A16H-SGXN11-25-R-None',(#352),#592);
#33=ELLIPSE('',#381,0.14142135623731,0.1);
#34=B_SPLINE_CURVE_WITH_KNOTS('',3,(#547,#548,#549,#550,#551,#552,#553,
#554,#555,#556,#557,#558,#559,#560,#561,#562),.UNSPECIFIED.,.F.,.F.,(4,
3,3,3,3,4),(0.,0.213708500181088,0.42760242929185,0.639211262147748,0.851749421741753,
1.),.UNSPECIFIED.);
#35=LINE('',#512,#52);
#36=LINE('',#515,#53);
#37=LINE('',#521,#54);
#38=LINE('',#524,#55);
#39=LINE('',#529,#56);
#40=LINE('',#531,#57);
#41=LINE('',#534,#58);
#42=LINE('',#536,#59);
#43=LINE('',#540,#60);
#44=LINE('',#544,#61);
#45=LINE('',#564,#62);
#46=LINE('',#566,#63);
#47=LINE('',#568,#64);
#48=LINE('',#570,#65);
#49=LINE('',#572,#66);
#50=LINE('',#575,#67);
#51=LINE('',#578,#68);
#52=VECTOR('',#423,1.);
#53=VECTOR('',#424,1.);
#54=VECTOR('',#431,1.);
#55=VECTOR('',#432,1.);
#56=VECTOR('',#437,1.);
#57=VECTOR('',#440,1.);
#58=VECTOR('',#441,1.);
#59=VECTOR('',#442,1.);
#60=VECTOR('',#445,1.);
#61=VECTOR('',#450,1.);
#62=VECTOR('',#457,1.);
#63=VECTOR('',#458,1.);
#64=VECTOR('',#459,1.);
#65=VECTOR('',#462,1.);
#66=VECTOR('',#463,1.);
#67=VECTOR('',#468,1.);
#68=VECTOR('',#473,1.);
#69=SURFACE_STYLE_USAGE(.BOTH.,#72);
#70=SURFACE_STYLE_USAGE(.BOTH.,#73);
#71=SURFACE_STYLE_USAGE(.BOTH.,#74);
#72=SURFACE_SIDE_STYLE('',(#75));
#73=SURFACE_SIDE_STYLE('',(#76));
#74=SURFACE_SIDE_STYLE('',(#77));
#75=SURFACE_STYLE_FILL_AREA(#78);
#76=SURFACE_STYLE_FILL_AREA(#79);
#77=SURFACE_STYLE_FILL_AREA(#80);
#78=FILL_AREA_STYLE('',(#81));
#79=FILL_AREA_STYLE('',(#82));
#80=FILL_AREA_STYLE('',(#83));
#81=FILL_AREA_STYLE_COLOUR('',#347);
#82=FILL_AREA_STYLE_COLOUR('',#348);
#83=FILL_AREA_STYLE_COLOUR('',#347);
#84=MANIFOLD_SOLID_BREP('NOCUT',#87);
#85=MANIFOLD_SOLID_BREP('CUT',#88);
#86=MANIFOLD_SOLID_BREP('NOCUT',#89);
#87=CLOSED_SHELL('',(#119,#120,#121,#122,#123,#124));
#88=CLOSED_SHELL('',(#125,#126,#127,#128,#129,#130,#131,#132,#133,#134,
#135));
#89=CLOSED_SHELL('',(#136,#137,#138,#139));
#90=PLANE('',#365);
#91=PLANE('',#366);
#92=PLANE('',#369);
#93=PLANE('',#372);
#94=PLANE('',#374);
#95=PLANE('',#379);
#96=PLANE('',#380);
#97=PLANE('',#384);
#98=PLANE('',#385);
#99=PLANE('',#387);
#100=PLANE('',#392);
#101=FACE_OUTER_BOUND('',#167,.T.);
#102=FACE_OUTER_BOUND('',#168,.T.);
#103=FACE_OUTER_BOUND('',#169,.T.);
#104=FACE_OUTER_BOUND('',#170,.T.);
#105=FACE_OUTER_BOUND('',#171,.T.);
#106=FACE_OUTER_BOUND('',#172,.T.);
#107=FACE_OUTER_BOUND('',#173,.T.);
#108=FACE_OUTER_BOUND('',#174,.T.);
#109=FACE_OUTER_BOUND('',#175,.T.);
#110=FACE_OUTER_BOUND('',#176,.T.);
#111=FACE_OUTER_BOUND('',#177,.T.);
#112=FACE_OUTER_BOUND('',#178,.T.);
#113=FACE_OUTER_BOUND('',#179,.T.);
#114=FACE_OUTER_BOUND('',#180,.T.);
#115=FACE_OUTER_BOUND('',#185,.T.);
#116=CONICAL_SURFACE('',#364,7.99,41.8112002045927);
#117=CONICAL_SURFACE('',#389,7.99,45.0000000000001);
#118=TOROIDAL_SURFACE('',#363,8.,4.);
#119=ADVANCED_FACE('',(#147,#148),#140,.T.);
#120=ADVANCED_FACE('',(#149,#150),#141,.T.);
#121=ADVANCED_FACE('',(#151,#152),#118,.F.);
#122=ADVANCED_FACE('',(#153,#154),#116,.T.);
#123=ADVANCED_FACE('',(#101),#90,.T.);
#124=ADVANCED_FACE('',(#102),#91,.T.);
#125=ADVANCED_FACE('',(#103),#92,.F.);
#126=ADVANCED_FACE('',(#104),#93,.T.);
#127=ADVANCED_FACE('',(#105),#94,.F.);
#128=ADVANCED_FACE('',(#106),#142,.T.);
#129=ADVANCED_FACE('',(#107),#143,.F.);
#130=ADVANCED_FACE('',(#108),#95,.T.);
#131=ADVANCED_FACE('',(#109),#96,.T.);
#132=ADVANCED_FACE('',(#110),#144,.T.);
#133=ADVANCED_FACE('',(#111),#145,.F.);
#134=ADVANCED_FACE('',(#112),#97,.F.);
#135=ADVANCED_FACE('',(#113),#98,.F.);
#136=ADVANCED_FACE('',(#114),#99,.F.);
#137=ADVANCED_FACE('',(#155,#156),#117,.T.);
#138=ADVANCED_FACE('',(#157,#158),#146,.T.);
#139=ADVANCED_FACE('',(#115),#100,.F.);
#140=CYLINDRICAL_SURFACE('',#358,7.99);
#141=CYLINDRICAL_SURFACE('',#361,4.);
#142=CYLINDRICAL_SURFACE('',#376,4.);
#143=CYLINDRICAL_SURFACE('',#378,0.5);
#144=CYLINDRICAL_SURFACE('',#382,0.1);
#145=CYLINDRICAL_SURFACE('',#383,0.1);
#146=CYLINDRICAL_SURFACE('',#391,7.99);
#147=FACE_BOUND('',#159,.T.);
#148=FACE_BOUND('',#160,.T.);
#149=FACE_BOUND('',#161,.T.);
#150=FACE_BOUND('',#162,.T.);
#151=FACE_BOUND('',#163,.T.);
#152=FACE_BOUND('',#164,.T.);
#153=FACE_BOUND('',#165,.T.);
#154=FACE_BOUND('',#166,.T.);
#155=FACE_BOUND('',#181,.T.);
#156=FACE_BOUND('',#182,.T.);
#157=FACE_BOUND('',#183,.T.);
#158=FACE_BOUND('',#184,.T.);
#159=EDGE_LOOP('',(#186));
#160=EDGE_LOOP('',(#187));
#161=EDGE_LOOP('',(#188));
#162=EDGE_LOOP('',(#189));
#163=EDGE_LOOP('',(#190));
#164=EDGE_LOOP('',(#191));
#165=EDGE_LOOP('',(#192));
#166=EDGE_LOOP('',(#193));
#167=EDGE_LOOP('',(#194));
#168=EDGE_LOOP('',(#195));
#169=EDGE_LOOP('',(#196,#197,#198,#199));
#170=EDGE_LOOP('',(#200,#201,#202,#203,#204,#205));
#171=EDGE_LOOP('',(#206,#207,#208,#209,#210));
#172=EDGE_LOOP('',(#211,#212,#213,#214));
#173=EDGE_LOOP('',(#215,#216,#217,#218,#219));
#174=EDGE_LOOP('',(#220,#221,#222,#223));
#175=EDGE_LOOP('',(#224,#225,#226,#227));
#176=EDGE_LOOP('',(#228,#229,#230,#231,#232));
#177=EDGE_LOOP('',(#233,#234,#235,#236));
#178=EDGE_LOOP('',(#237,#238,#239,#240,#241));
#179=EDGE_LOOP('',(#242,#243,#244,#245,#246,#247));
#180=EDGE_LOOP('',(#248));
#181=EDGE_LOOP('',(#249));
#182=EDGE_LOOP('',(#250));
#183=EDGE_LOOP('',(#251));
#184=EDGE_LOOP('',(#252));
#185=EDGE_LOOP('',(#253));
#186=ORIENTED_EDGE('',*,*,#279,.T.);
#187=ORIENTED_EDGE('',*,*,#280,.T.);
#188=ORIENTED_EDGE('',*,*,#281,.T.);
#189=ORIENTED_EDGE('',*,*,#282,.F.);
#190=ORIENTED_EDGE('',*,*,#283,.T.);
#191=ORIENTED_EDGE('',*,*,#282,.T.);
#192=ORIENTED_EDGE('',*,*,#283,.F.);
#193=ORIENTED_EDGE('',*,*,#279,.F.);
#194=ORIENTED_EDGE('',*,*,#281,.F.);
#195=ORIENTED_EDGE('',*,*,#280,.F.);
#196=ORIENTED_EDGE('',*,*,#284,.T.);
#197=ORIENTED_EDGE('',*,*,#285,.T.);
#198=ORIENTED_EDGE('',*,*,#286,.F.);
#199=ORIENTED_EDGE('',*,*,#287,.T.);
#200=ORIENTED_EDGE('',*,*,#288,.F.);
#201=ORIENTED_EDGE('',*,*,#289,.F.);
#202=ORIENTED_EDGE('',*,*,#290,.T.);
#203=ORIENTED_EDGE('',*,*,#291,.T.);
#204=ORIENTED_EDGE('',*,*,#284,.F.);
#205=ORIENTED_EDGE('',*,*,#292,.F.);
#206=ORIENTED_EDGE('',*,*,#293,.F.);
#207=ORIENTED_EDGE('',*,*,#294,.T.);
#208=ORIENTED_EDGE('',*,*,#295,.T.);
#209=ORIENTED_EDGE('',*,*,#296,.T.);
#210=ORIENTED_EDGE('',*,*,#297,.F.);
#211=ORIENTED_EDGE('',*,*,#298,.F.);
#212=ORIENTED_EDGE('',*,*,#292,.T.);
#213=ORIENTED_EDGE('',*,*,#287,.F.);
#214=ORIENTED_EDGE('',*,*,#299,.F.);
#215=ORIENTED_EDGE('',*,*,#295,.F.);
#216=ORIENTED_EDGE('',*,*,#300,.T.);
#217=ORIENTED_EDGE('',*,*,#299,.T.);
#218=ORIENTED_EDGE('',*,*,#286,.T.);
#219=ORIENTED_EDGE('',*,*,#301,.T.);
#220=ORIENTED_EDGE('',*,*,#302,.F.);
#221=ORIENTED_EDGE('',*,*,#293,.T.);
#222=ORIENTED_EDGE('',*,*,#303,.F.);
#223=ORIENTED_EDGE('',*,*,#304,.F.);
#224=ORIENTED_EDGE('',*,*,#305,.F.);
#225=ORIENTED_EDGE('',*,*,#303,.T.);
#226=ORIENTED_EDGE('',*,*,#297,.T.);
#227=ORIENTED_EDGE('',*,*,#306,.T.);
#228=ORIENTED_EDGE('',*,*,#307,.F.);
#229=ORIENTED_EDGE('',*,*,#306,.F.);
#230=ORIENTED_EDGE('',*,*,#296,.F.);
#231=ORIENTED_EDGE('',*,*,#308,.F.);
#232=ORIENTED_EDGE('',*,*,#290,.F.);
#233=ORIENTED_EDGE('',*,*,#301,.F.);
#234=ORIENTED_EDGE('',*,*,#285,.F.);
#235=ORIENTED_EDGE('',*,*,#291,.F.);
#236=ORIENTED_EDGE('',*,*,#308,.T.);
#237=ORIENTED_EDGE('',*,*,#289,.T.);
#238=ORIENTED_EDGE('',*,*,#309,.T.);
#239=ORIENTED_EDGE('',*,*,#304,.T.);
#240=ORIENTED_EDGE('',*,*,#305,.T.);
#241=ORIENTED_EDGE('',*,*,#307,.T.);
#242=ORIENTED_EDGE('',*,*,#298,.T.);
#243=ORIENTED_EDGE('',*,*,#300,.F.);
#244=ORIENTED_EDGE('',*,*,#294,.F.);
#245=ORIENTED_EDGE('',*,*,#302,.T.);
#246=ORIENTED_EDGE('',*,*,#309,.F.);
#247=ORIENTED_EDGE('',*,*,#288,.T.);
#248=ORIENTED_EDGE('',*,*,#310,.T.);
#249=ORIENTED_EDGE('',*,*,#310,.F.);
#250=ORIENTED_EDGE('',*,*,#311,.T.);
#251=ORIENTED_EDGE('',*,*,#312,.T.);
#252=ORIENTED_EDGE('',*,*,#311,.F.);
#253=ORIENTED_EDGE('',*,*,#312,.F.);
#254=VERTEX_POINT('',#497);
#255=VERTEX_POINT('',#499);
#256=VERTEX_POINT('',#502);
#257=VERTEX_POINT('',#504);
#258=VERTEX_POINT('',#507);
#259=VERTEX_POINT('',#513);
#260=VERTEX_POINT('',#514);
#261=VERTEX_POINT('',#516);
#262=VERTEX_POINT('',#518);
#263=VERTEX_POINT('',#522);
#264=VERTEX_POINT('',#523);
#265=VERTEX_POINT('',#525);
#266=VERTEX_POINT('',#527);
#267=VERTEX_POINT('',#532);
#268=VERTEX_POINT('',#533);
#269=VERTEX_POINT('',#535);
#270=VERTEX_POINT('',#537);
#271=VERTEX_POINT('',#539);
#272=VERTEX_POINT('',#543);
#273=VERTEX_POINT('',#565);
#274=VERTEX_POINT('',#567);
#275=VERTEX_POINT('',#571);
#276=VERTEX_POINT('',#582);
#277=VERTEX_POINT('',#585);
#278=VERTEX_POINT('',#588);
#279=EDGE_CURVE('',#254,#254,#313,.T.);
#280=EDGE_CURVE('',#255,#255,#314,.T.);
#281=EDGE_CURVE('',#256,#256,#315,.T.);
#282=EDGE_CURVE('',#257,#257,#316,.T.);
#283=EDGE_CURVE('',#258,#258,#317,.T.);
#284=EDGE_CURVE('',#259,#260,#35,.T.);
#285=EDGE_CURVE('',#260,#261,#36,.T.);
#286=EDGE_CURVE('',#262,#261,#318,.T.);
#287=EDGE_CURVE('',#262,#259,#319,.T.);
#288=EDGE_CURVE('',#263,#264,#37,.T.);
#289=EDGE_CURVE('',#265,#263,#38,.T.);
#290=EDGE_CURVE('',#265,#266,#320,.T.);
#291=EDGE_CURVE('',#266,#260,#321,.T.);
#292=EDGE_CURVE('',#264,#259,#39,.T.);
#293=EDGE_CURVE('',#267,#268,#40,.T.);
#294=EDGE_CURVE('',#267,#269,#41,.T.);
#295=EDGE_CURVE('',#269,#270,#42,.T.);
#296=EDGE_CURVE('',#270,#271,#322,.T.);
#297=EDGE_CURVE('',#268,#271,#43,.T.);
#298=EDGE_CURVE('',#264,#272,#323,.T.);
#299=EDGE_CURVE('',#272,#262,#44,.T.);
#300=EDGE_CURVE('',#269,#272,#324,.T.);
#301=EDGE_CURVE('',#261,#270,#34,.T.);
#302=EDGE_CURVE('',#267,#273,#45,.T.);
#303=EDGE_CURVE('',#274,#268,#46,.T.);
#304=EDGE_CURVE('',#273,#274,#47,.T.);
#305=EDGE_CURVE('',#274,#275,#48,.T.);
#306=EDGE_CURVE('',#271,#275,#49,.T.);
#307=EDGE_CURVE('',#275,#265,#33,.T.);
#308=EDGE_CURVE('',#266,#270,#50,.T.);
#309=EDGE_CURVE('',#263,#273,#51,.T.);
#310=EDGE_CURVE('',#276,#276,#325,.T.);
#311=EDGE_CURVE('',#277,#277,#326,.T.);
#312=EDGE_CURVE('',#278,#278,#327,.T.);
#313=CIRCLE('',#356,7.99);
#314=CIRCLE('',#357,7.99);
#315=CIRCLE('',#359,4.);
#316=CIRCLE('',#360,4.);
#317=CIRCLE('',#362,7.54456585346866);
#318=CIRCLE('',#367,0.5);
#319=CIRCLE('',#368,4.);
#320=CIRCLE('',#370,0.1);
#321=CIRCLE('',#371,0.1);
#322=CIRCLE('',#373,0.1);
#323=CIRCLE('',#375,4.);
#324=CIRCLE('',#377,0.5);
#325=CIRCLE('',#386,7.49);
#326=CIRCLE('',#388,7.99);
#327=CIRCLE('',#390,7.99);
#328=PRESENTATION_LAYER_ASSIGNMENT('1','Layer 1',(#353,#354,#355,#86));
#329=PRESENTATION_LAYER_ASSIGNMENT('2','Layer 2',(#84));
#330=PRESENTATION_LAYER_ASSIGNMENT('3','Layer 3',(#85));
#331=STYLED_ITEM('',(#337),#353);
#332=STYLED_ITEM('',(#338),#354);
#333=STYLED_ITEM('',(#339),#355);
#334=STYLED_ITEM('',(#340),#84);
#335=STYLED_ITEM('',(#341),#85);
#336=STYLED_ITEM('',(#342),#86);
#337=PRESENTATION_STYLE_ASSIGNMENT((#343));
#338=PRESENTATION_STYLE_ASSIGNMENT((#344));
#339=PRESENTATION_STYLE_ASSIGNMENT((#345));
#340=PRESENTATION_STYLE_ASSIGNMENT((#69));
#341=PRESENTATION_STYLE_ASSIGNMENT((#70));
#342=PRESENTATION_STYLE_ASSIGNMENT((#71));
#343=CURVE_STYLE('',#349,POSITIVE_LENGTH_MEASURE(0.18),#346);
#344=CURVE_STYLE('',#350,POSITIVE_LENGTH_MEASURE(0.18),#346);
#345=CURVE_STYLE('',#351,POSITIVE_LENGTH_MEASURE(0.18),#346);
#346=COLOUR_RGB('Strong Stone',0.576470588235294,0.54508278019379,0.392156862745098);
#347=COLOUR_RGB('Medium Gray',0.490196078431373,0.490196078431373,0.490196078431373);
#348=COLOUR_RGB('Light Gray',0.8,0.8,0.8);
#349=DRAUGHTING_PRE_DEFINED_CURVE_FONT('continuous');
#350=DRAUGHTING_PRE_DEFINED_CURVE_FONT('continuous');
#351=DRAUGHTING_PRE_DEFINED_CURVE_FONT('continuous');
#352=AXIS2_PLACEMENT_3D('',#492,#393,#394);
#353=AXIS2_PLACEMENT_3D('MCS',#493,#395,#396);
#354=AXIS2_PLACEMENT_3D('PCS',#494,#397,#398);
#355=AXIS2_PLACEMENT_3D('CSW',#495,#399,#400);
#356=AXIS2_PLACEMENT_3D('',#496,#401,#402);
#357=AXIS2_PLACEMENT_3D('',#498,#403,#404);
#358=AXIS2_PLACEMENT_3D('',#500,#405,#406);
#359=AXIS2_PLACEMENT_3D('',#501,#407,#408);
#360=AXIS2_PLACEMENT_3D('',#503,#409,#410);
#361=AXIS2_PLACEMENT_3D('',#505,#411,#412);
#362=AXIS2_PLACEMENT_3D('',#506,#413,#414);
#363=AXIS2_PLACEMENT_3D('',#508,#415,#416);
#364=AXIS2_PLACEMENT_3D('',#509,#417,#418);
#365=AXIS2_PLACEMENT_3D('',#510,#419,#420);
#366=AXIS2_PLACEMENT_3D('',#511,#421,#422);
#367=AXIS2_PLACEMENT_3D('',#517,#425,#426);
#368=AXIS2_PLACEMENT_3D('',#519,#427,#428);
#369=AXIS2_PLACEMENT_3D('',#520,#429,#430);
#370=AXIS2_PLACEMENT_3D('',#526,#433,#434);
#371=AXIS2_PLACEMENT_3D('',#528,#435,#436);
#372=AXIS2_PLACEMENT_3D('',#530,#438,#439);
#373=AXIS2_PLACEMENT_3D('',#538,#443,#444);
#374=AXIS2_PLACEMENT_3D('',#541,#446,#447);
#375=AXIS2_PLACEMENT_3D('',#542,#448,#449);
#376=AXIS2_PLACEMENT_3D('',#545,#451,#452);
#377=AXIS2_PLACEMENT_3D('',#546,#453,#454);
#378=AXIS2_PLACEMENT_3D('',#563,#455,#456);
#379=AXIS2_PLACEMENT_3D('',#569,#460,#461);
#380=AXIS2_PLACEMENT_3D('',#573,#464,#465);
#381=AXIS2_PLACEMENT_3D('',#574,#466,#467);
#382=AXIS2_PLACEMENT_3D('',#576,#469,#470);
#383=AXIS2_PLACEMENT_3D('',#577,#471,#472);
#384=AXIS2_PLACEMENT_3D('',#579,#474,#475);
#385=AXIS2_PLACEMENT_3D('',#580,#476,#477);
#386=AXIS2_PLACEMENT_3D('',#581,#478,#479);
#387=AXIS2_PLACEMENT_3D('',#583,#480,#481);
#388=AXIS2_PLACEMENT_3D('',#584,#482,#483);
#389=AXIS2_PLACEMENT_3D('',#586,#484,#485);
#390=AXIS2_PLACEMENT_3D('',#587,#486,#487);
#391=AXIS2_PLACEMENT_3D('',#589,#488,#489);
#392=AXIS2_PLACEMENT_3D('',#590,#490,#491);
#393=DIRECTION('',(0.,0.,1.));
#394=DIRECTION('',(1.,0.,0.));
#395=DIRECTION('',(0.,0.,1.));
#396=DIRECTION('',(1.,0.,0.));
#397=DIRECTION('',(0.,0.,1.));
#398=DIRECTION('',(1.,0.,0.));
#399=DIRECTION('',(0.,0.,1.));
#400=DIRECTION('',(1.,0.,0.));
#401=DIRECTION('',(-1.29064155981908E-16,1.17145334231628E-15,1.));
#402=DIRECTION('',(-1.,0.,0.));
#403=DIRECTION('',(0.,0.,-1.));
#404=DIRECTION('',(1.,0.,0.));
#405=DIRECTION('',(-1.29064155981908E-16,1.17145334231628E-15,1.));
#406=DIRECTION('',(-1.,0.,0.));
#407=DIRECTION('',(0.,1.17145334231628E-15,1.));
#408=DIRECTION('',(0.,1.,-1.73472347597681E-15));
#409=DIRECTION('',(-1.29064155981908E-16,1.17145334231628E-15,1.));
#410=DIRECTION('',(-1.,0.,0.));
#411=DIRECTION('',(-1.29064155981908E-16,1.17145334231628E-15,1.));
#412=DIRECTION('',(-1.,0.,0.));
#413=DIRECTION('',(1.29064155981908E-16,-1.17145334231628E-15,-1.));
#414=DIRECTION('',(1.,0.,0.));
#415=DIRECTION('',(-1.29064155981908E-16,1.17145334231628E-15,1.));
#416=DIRECTION('',(-1.,0.,0.));
#417=DIRECTION('',(-1.29064155981908E-16,1.17145334231628E-15,1.));
#418=DIRECTION('',(-1.,-2.45851136152911E-31,-7.30454396464249E-17));
#419=DIRECTION('',(0.,-1.17145334231628E-15,-1.));
#420=DIRECTION('',(0.,1.,-1.17267306976032E-15));
#421=DIRECTION('',(0.,0.,1.));
#422=DIRECTION('',(1.,0.,0.));
#423=DIRECTION('',(-1.,0.,0.));
#424=DIRECTION('',(0.,1.,1.17145334231628E-15));
#425=DIRECTION('',(0.,1.17145334231628E-15,-1.));
#426=DIRECTION('',(1.,0.,0.));
#427=DIRECTION('',(0.,1.17145334231628E-15,-1.));
#428=DIRECTION('',(1.,0.,0.));
#429=DIRECTION('',(0.,-1.17145334231628E-15,1.));
#430=DIRECTION('',(1.,0.,0.));
#431=DIRECTION('',(1.,0.,0.));
#432=DIRECTION('',(0.,-1.17145334231628E-15,1.));
#433=DIRECTION('',(0.,-1.,-1.17145334231628E-15));
#434=DIRECTION('',(0.,0.,1.00000000000003));
#435=DIRECTION('',(0.,1.,1.17145334231628E-15));
#436=DIRECTION('',(0.,0.,1.00000000000003));
#437=DIRECTION('',(0.,1.17145334231628E-15,-1.));
#438=DIRECTION('',(0.,-1.,-1.17145334231628E-15));
#439=DIRECTION('',(0.,-1.17180570802233E-15,1.));
#440=DIRECTION('',(0.,1.17145334231628E-15,-1.));
#441=DIRECTION('',(1.,0.,0.));
#442=DIRECTION('',(0.,1.17145334231628E-15,-1.));
#443=DIRECTION('',(0.,1.,1.17145334231628E-15));
#444=DIRECTION('',(0.,-1.17145334231699E-15,1.00000000000003));
#445=DIRECTION('',(1.,0.,0.));
#446=DIRECTION('',(0.,-1.,-1.17145334231628E-15));
#447=DIRECTION('',(0.,-1.17145334231628E-15,1.));
#448=DIRECTION('',(0.,-1.17145334231628E-15,1.));
#449=DIRECTION('',(0.,-1.,-1.73472347597681E-15));
#450=DIRECTION('',(0.,1.17145334231628E-15,-1.));
#451=DIRECTION('',(0.,1.17145334231628E-15,-1.));
#452=DIRECTION('',(-1.,0.,0.));
#453=DIRECTION('',(0.,-1.17145334231628E-15,1.));
#454=DIRECTION('',(0.,-1.,0.));
#455=DIRECTION('',(0.,1.17145334231628E-15,-1.));
#456=DIRECTION('',(-1.,0.,0.));
#457=DIRECTION('',(0.,-1.,-1.17145334231628E-15));
#458=DIRECTION('',(2.16840434497101E-16,1.,1.17145334231628E-15));
#459=DIRECTION('',(0.,1.17145334231628E-15,-1.));
#460=DIRECTION('',(-1.,0.,0.));
#461=DIRECTION('',(0.,-1.17145334231628E-15,1.));
#462=DIRECTION('',(0.707106781186548,-0.707106781186547,-8.28342602195484E-16));
#463=DIRECTION('',(0.,-1.,-1.17145334231628E-15));
#464=DIRECTION('',(0.,1.17145334231628E-15,-1.));
#465=DIRECTION('',(-1.,0.,0.));
#466=DIRECTION('',(-0.707106781186547,-0.707106781186548,-8.28342602195485E-16));
#467=DIRECTION('',(-0.707106781186548,0.707106781186547,8.28342602195484E-16));
#468=DIRECTION('',(0.,1.,1.17145334231628E-15));
#469=DIRECTION('',(0.,1.,1.17145334231628E-15));
#470=DIRECTION('',(0.,1.17145334231699E-15,-1.00000000000003));
#471=DIRECTION('',(0.,1.,1.17145334231628E-15));
#472=DIRECTION('',(0.,1.17145334231699E-15,-1.00000000000003));
#473=DIRECTION('',(-0.707106781186548,0.707106781186547,8.28342602195484E-16));
#474=DIRECTION('',(0.707106781186547,0.707106781186548,8.28342602195485E-16));
#475=DIRECTION('',(0.707106781186548,-0.707106781186547,-8.2572837456496E-16));
#476=DIRECTION('',(0.,1.17145334231628E-15,-1.));
#477=DIRECTION('',(0.,-1.,-1.17267306976032E-15));
#478=DIRECTION('',(-1.29064155981908E-16,1.17145334231628E-15,1.));
#479=DIRECTION('',(-1.,0.,0.));
#480=DIRECTION('',(1.29064155981908E-16,-1.17145334231628E-15,-1.));
#481=DIRECTION('',(1.,1.41748443906901E-31,1.31838984174237E-16));
#482=DIRECTION('',(-1.29064155981908E-16,1.17145334231628E-15,1.));
#483=DIRECTION('',(-1.,0.,0.));
#484=DIRECTION('',(1.29064155981908E-16,-1.17145334231628E-15,-1.));
#485=DIRECTION('',(1.,1.58967223259177E-31,1.03258374149156E-16));
#486=DIRECTION('',(0.,0.,1.));
#487=DIRECTION('',(1.,0.,0.));
#488=DIRECTION('',(-1.29064155981908E-16,1.17145334231628E-15,1.));
#489=DIRECTION('',(-1.,0.,0.));
#490=DIRECTION('',(0.,0.,1.));
#491=DIRECTION('',(1.,0.,0.));
#492=CARTESIAN_POINT('',(0.,0.,0.));
#493=CARTESIAN_POINT('',(3.42381613450951E-15,-1.93618008520935E-14,0.));
#494=CARTESIAN_POINT('',(-5.80788701918585E-15,5.27154004042321E-14,48.));
#495=CARTESIAN_POINT('',(-8.12460404572979E-13,9.63909006865227E-13,-52.8003629433023));
#496=CARTESIAN_POINT('',(3.42381613450951E-15,-3.10763342752563E-14,-23.5280170815935));
#497=CARTESIAN_POINT('',(-7.99,-3.10763342752563E-14,-23.5280170815935));
#498=CARTESIAN_POINT('',(7.70371977754894E-31,-1.23259516440783E-29,-6.93889390390723E-15));
#499=CARTESIAN_POINT('',(7.99,-1.23259516440783E-29,-6.93889390390723E-15));
#500=CARTESIAN_POINT('',(6.72475025394752E-15,-6.10373275313819E-14,-49.103933914));
#501=CARTESIAN_POINT('',(6.60167842144557E-15,-5.99202636306223E-14,-48.1503629433023));
#502=CARTESIAN_POINT('',(6.60167842144557E-15,3.99999999999994,-48.1503629433023));
#503=CARTESIAN_POINT('',(4.00098883543915E-15,-3.63150536118048E-14,-28.));
#504=CARTESIAN_POINT('',(-4.,-3.63150536118048E-14,-28.));
#505=CARTESIAN_POINT('',(6.72475025394752E-15,-6.10373275313819E-14,-49.103933914));
#506=CARTESIAN_POINT('',(3.72028551115144E-15,-3.16597122174635E-14,-24.0260121114713));
#507=CARTESIAN_POINT('',(7.54456585346866,-3.16597122174635E-14,-24.0260121114713));
#508=CARTESIAN_POINT('',(4.23318490386672E-15,-3.63150536118048E-14,-28.));
#509=CARTESIAN_POINT('',(3.65601220293709E-15,-3.10763342752563E-14,-23.5280170815935));
#510=CARTESIAN_POINT('',(0.90149147038996,-2.895000000001,-48.1503629433023));
#511=CARTESIAN_POINT('',(-4.09361918715016E-16,1.31215567924856E-16,-6.93889390390723E-15));
#512=CARTESIAN_POINT('',(6.15110001080049,-3.99999999999903,-52.8003629433023));
#513=CARTESIAN_POINT('',(-8.12460404572979E-13,-3.99999999999903,-52.8003629433023));
#514=CARTESIAN_POINT('',(-4.3721359550004,-3.99999999999903,-52.8003629433023));
#515=CARTESIAN_POINT('',(-4.3721359550004,9.63909006865227E-13,-52.8003629433023));
#516=CARTESIAN_POINT('',(-4.3721359550004,0.0101020514443282,-52.8003629433023));
#517=CARTESIAN_POINT('',(-4.4721359550004,0.500000000000964,-52.8003629433023));
#518=CARTESIAN_POINT('',(-3.97523196000045,0.444444444445409,-52.8003629433023));
#519=CARTESIAN_POINT('',(-8.12460404572979E-13,9.63909006865227E-13,-52.8003629433023));
#520=CARTESIAN_POINT('',(6.15110001080049,4.00000000000097,-52.8003629433023));
#521=CARTESIAN_POINT('',(-8.12460404572979E-13,-3.99999999999904,-48.1503629433023));
#522=CARTESIAN_POINT('',(-4.48528137423939,-3.99999999999904,-48.1503629433023));
#523=CARTESIAN_POINT('',(-8.11725640760687E-13,-3.99999999999904,-48.1503629433023));
#524=CARTESIAN_POINT('',(-4.48528137423939,-3.99999999999904,-48.1503629433023));
#525=CARTESIAN_POINT('',(-4.48528137423939,-3.99999999999903,-52.9499238331332));
#526=CARTESIAN_POINT('',(-4.5721359550004,-3.99999999999903,-52.9003629433023));
#527=CARTESIAN_POINT('',(-4.4721359550004,-3.99999999999903,-52.9003629433023));
#528=CARTESIAN_POINT('',(-4.3721359550004,-3.99999999999903,-52.9003629433023));
#529=CARTESIAN_POINT('',(-8.11725640760687E-13,-3.99999999999904,-48.1503629433023));
#530=CARTESIAN_POINT('',(-8.12460404572979E-13,-3.99999999999904,-48.1503629433023));
#531=CARTESIAN_POINT('',(-6.70000000000082,9.58461748823456E-13,-48.1503629433023));
#532=CARTESIAN_POINT('',(-6.70000000000082,9.58461748823456E-13,-48.1503629433023));
#533=CARTESIAN_POINT('',(-6.70000000000082,9.64143297533691E-13,-53.0003629433023));
#534=CARTESIAN_POINT('',(-4.4721359550004,9.58461748823456E-13,-48.1503629433023));
#535=CARTESIAN_POINT('',(-4.4721359550004,9.58128681916069E-13,-48.1503629433023));
#536=CARTESIAN_POINT('',(-4.4721359550004,9.58128681916069E-13,-48.1503629433023));
#537=CARTESIAN_POINT('',(-4.4721359550004,9.63883566391718E-13,-52.9003629433023));
#538=CARTESIAN_POINT('',(-4.5721359550004,9.64026152199459E-13,-52.9003629433023));
#539=CARTESIAN_POINT('',(-4.5721359550004,9.64143297533691E-13,-53.0003629433023));
#540=CARTESIAN_POINT('',(-6.70000000000082,9.64143297533691E-13,-53.0003629433023));
#541=CARTESIAN_POINT('',(-4.4721359550004,9.58461748823456E-13,-48.1503629433023));
#542=CARTESIAN_POINT('',(-8.12460404572979E-13,9.58461748823456E-13,-48.1503629433023));
#543=CARTESIAN_POINT('',(-3.97523196000044,0.444444444445404,-48.1503629433023));
#544=CARTESIAN_POINT('',(-3.97523196000044,0.444444444445404,-48.1503629433023));
#545=CARTESIAN_POINT('',(-8.12460404572979E-13,9.58461748823456E-13,-48.1503629433023));
#546=CARTESIAN_POINT('',(-4.4721359550004,0.500000000000959,-48.1503629433023));
#547=CARTESIAN_POINT('',(-4.3721359550004,0.0101020514443282,-52.8003629433023));
#548=CARTESIAN_POINT('',(-4.38308477441971,0.00786713303906108,-52.8003629433023));
#549=CARTESIAN_POINT('',(-4.39426641923279,0.00598770711866289,-52.802214673647));
#550=CARTESIAN_POINT('',(-4.4047439616935,0.00456249714301224,-52.805828727806));
#551=CARTESIAN_POINT('',(-4.41522745622296,0.00313647753592383,-52.8094448350323));
#552=CARTESIAN_POINT('',(-4.42529083916512,0.0021217107915656,-52.8149280348984));
#553=CARTESIAN_POINT('',(-4.43405483410486,0.00145228088940324,-52.8218387278624));
#554=CARTESIAN_POINT('',(-4.44272870597757,0.000789734956978341,-52.8286783558784));
#555=CARTESIAN_POINT('',(-4.45036894342288,0.000438334165651287,-52.8371014269407));
#556=CARTESIAN_POINT('',(-4.4563376252944,0.000249649547359393,-52.8464177978331));
#557=CARTESIAN_POINT('',(-4.46233244177994,6.01387500594424E-5,-52.8557749616111));
#558=CARTESIAN_POINT('',(-4.46680637254721,2.17187462884353E-5,-52.8662888755504));
#559=CARTESIAN_POINT('',(-4.46939209761971,7.52881097257823E-6,-52.8770983194538));
#560=CARTESIAN_POINT('',(-4.47120874322963,-2.44057207233761E-6,-52.8846926801311));
#561=CARTESIAN_POINT('',(-4.4721359550004,9.64060501687332E-13,-52.8925543189191));
#562=CARTESIAN_POINT('',(-4.4721359550004,9.64074047491365E-13,-52.9003629433023));
#563=CARTESIAN_POINT('',(-4.4721359550004,0.500000000000959,-48.1503629433023));
#564=CARTESIAN_POINT('',(-6.70000000000082,9.58461748823456E-13,-48.1503629433023));
#565=CARTESIAN_POINT('',(-6.70000000000082,-1.78528137423761,-48.1503629433023));
#566=CARTESIAN_POINT('',(-6.70000000000082,-3.99999999999903,-53.0003629433023));
#567=CARTESIAN_POINT('',(-6.70000000000082,-1.7852813742376,-53.0003629433023));
#568=CARTESIAN_POINT('',(-6.70000000000082,-1.7852813742376,-52.8003629433023));
#569=CARTESIAN_POINT('',(-6.70000000000082,9.63909006865227E-13,-52.8003629433023));
#570=CARTESIAN_POINT('',(-6.47870866461989,-2.00657270961853,-53.0003629433023));
#571=CARTESIAN_POINT('',(-4.5721359550004,-3.91314541923802,-53.0003629433023));
#572=CARTESIAN_POINT('',(-4.5721359550004,-3.99999999999903,-53.0003629433023));
#573=CARTESIAN_POINT('',(-4.4721359550004,9.64143297533691E-13,-53.0003629433023));
#574=CARTESIAN_POINT('',(-4.5721359550004,-3.91314541923802,-52.9003629433023));
#575=CARTESIAN_POINT('',(-4.4721359550004,9.64026152199459E-13,-52.9003629433023));
#576=CARTESIAN_POINT('',(-4.5721359550004,9.64026152199459E-13,-52.9003629433023));
#577=CARTESIAN_POINT('',(-4.3721359550004,9.64026152199459E-13,-52.9003629433023));
#578=CARTESIAN_POINT('',(-4.2426406871201,-4.24264068711833,-48.1503629433023));
#579=CARTESIAN_POINT('',(-4.2426406871201,-4.24264068711832,-53.3003629433023));
#580=CARTESIAN_POINT('',(-0.901491470389954,2.89500000000096,-48.1503629433023));
#581=CARTESIAN_POINT('',(-5.80788701918585E-15,5.27154004042321E-14,48.));
#582=CARTESIAN_POINT('',(-7.49,5.27154004042321E-14,48.));
#583=CARTESIAN_POINT('',(-7.49,5.27154004042321E-14,48.));
#584=CARTESIAN_POINT('',(-5.74335494119489E-15,5.2129673733074E-14,47.5));
#585=CARTESIAN_POINT('',(-7.99,5.2129673733074E-14,47.5));
#586=CARTESIAN_POINT('',(-5.74335494119489E-15,5.2129673733074E-14,47.5));
#587=CARTESIAN_POINT('',(7.70371977754894E-31,-1.23259516440783E-29,-6.93889390390723E-15));
#588=CARTESIAN_POINT('',(7.99,-1.23259516440783E-29,-6.93889390390723E-15));
#589=CARTESIAN_POINT('',(6.72475025394752E-15,-6.10373275313819E-14,-49.103933914));
#590=CARTESIAN_POINT('',(-4.09361918715016E-16,1.31215567924856E-16,-6.93889390390723E-15));
#591=MECHANICAL_DESIGN_GEOMETRIC_PRESENTATION_REPRESENTATION('',(#331,#332,
#333,#334,#335,#336),#592);
#592=(
GEOMETRIC_REPRESENTATION_CONTEXT(3)
GLOBAL_UNCERTAINTY_ASSIGNED_CONTEXT((#593))
GLOBAL_UNIT_ASSIGNED_CONTEXT((#599,#595,#594))
REPRESENTATION_CONTEXT('A16H-SGXN11-25-R','TOP_LEVEL_ASSEMBLY_PART')
);
#593=UNCERTAINTY_MEASURE_WITH_UNIT(LENGTH_MEASURE(0.0508),#599,
'DISTANCE_ACCURACY_VALUE','Maximum Tolerance applied to model');
#594=(
NAMED_UNIT(*)
SI_UNIT($,.STERADIAN.)
SOLID_ANGLE_UNIT()
);
#595=(
CONVERSION_BASED_UNIT('DEGREE',#597)
NAMED_UNIT(#596)
PLANE_ANGLE_UNIT()
);
#596=DIMENSIONAL_EXPONENTS(0.,0.,0.,0.,0.,0.,0.);
#597=PLANE_ANGLE_MEASURE_WITH_UNIT(PLANE_ANGLE_MEASURE(0.0174532925),#598);
#598=(
NAMED_UNIT(*)
PLANE_ANGLE_UNIT()
SI_UNIT($,.RADIAN.)
);
#599=(
LENGTH_UNIT()
NAMED_UNIT(*)
SI_UNIT(.MILLI.,.METRE.)
);
ENDSEC;
END-ISO-10303-21;
