ISO-10303-21;
HEADER;
/* Generated by software containing ST-Developer
 * from STEP Tools, Inc. (www.steptools.com) 
 */
/* OPTION: using custom schema-name function */

FILE_DESCRIPTION(
/* description */ (''),
/* implementation_level */ '2;1');

FILE_NAME(
/* name */ 'A16H-SGXN11-25.stp',
/* time_stamp */ '2018-04-11T16:02:59+06:00',
/* author */ (''),
/* organization */ (''),
/* preprocessor_version */ 'ST-DEVELOPER v16',
/* originating_system */ 'SIEMENS PLM Software NX 11.0',
/* authorisation */ '');

FILE_SCHEMA (('AUTOMOTIVE_DESIGN { 1 0 10303 214 3 1 1 1 }'));
ENDSEC;

DATA;
#10=CONSTRUCTIVE_GEOMETRY_REPRESENTATION_RELATIONSHIP(
'supplemental geometry','',#32,#11);
#11=CONSTRUCTIVE_GEOMETRY_REPRESENTATION('supplemental geometry',(#353,
#354,#355),#592);
#12=PROPERTY_DEFINITION_REPRESENTATION(#16,#14);
#13=PROPERTY_DEFINITION_REPRESENTATION(#17,#15);
#14=REPRESENTATION('',(#18),#592);
#15=REPRESENTATION('',(#19),#592);
#16=PROPERTY_DEFINITION('pmi validation property','',#23);
#17=PROPERTY_DEFINITION('pmi validation property','',#23);
#18=VALUE_REPRESENTATION_ITEM('number of annotations',COUNT_MEASURE(0.));
#19=VALUE_REPRESENTATION_ITEM('number of views',COUNT_MEASURE(0.));
#20=SHAPE_REPRESENTATION_RELATIONSHIP('None',
'relationship between A16H-SGXN11-25-None and A16H-SGXN11-25-None',#32,
#21);
#21=ADVANCED_BREP_SHAPE_REPRESENTATION('A16H-SGXN11-25-None',(#84,#85,#86),
#592);
#22=SHAPE_DEFINITION_REPRESENTATION(#23,#32);
#23=PRODUCT_DEFINITION_SHAPE('','',#24);
#24=PRODUCT_DEFINITION(' ','',#26,#25);
#25=PRODUCT_DEFINITION_CONTEXT('part definition',#31,'design');
#26=PRODUCT_DEFINITION_FORMATION_WITH_SPECIFIED_SOURCE(' ',' ',#28,
 .NOT_KNOWN.);
#27=PRODUCT_RELATED_PRODUCT_CATEGORY('part','',(#28));
#28=PRODUCT('inpu329CA09Dxubx','inpu329CA09Dxubx',' ',(#29));
#29=PRODUCT_CONTEXT(' ',#31,'mechanical');
#30=APPLICATION_PROTOCOL_DEFINITION('international standard',
'automotive_design',2010,#31);
#31=APPLICATION_CONTEXT(
'core data for automotive mechanical design processes');
#32=SHAPE_REPRESENTATION('A16H-SGXN11-25-None',(#352),#592);
#33=B_SPLINE_CURVE_WITH_KNOTS('',3,(#529,#530,#531,#532,#533,#534,#535,
#536,#537,#538,#539,#540,#541,#542,#543,#544),.UNSPECIFIED.,.F.,.F.,(4,
3,3,3,3,4),(0.,0.213708500181073,0.427602429291803,0.639211262147676,0.851749421741717,
1.),.UNSPECIFIED.);
#34=ELLIPSE('',#368,0.14142135623731,0.1);
#35=LINE('',#512,#52);
#36=LINE('',#515,#53);
#37=LINE('',#517,#54);
#38=LINE('',#519,#55);
#39=LINE('',#525,#56);
#40=LINE('',#546,#57);
#41=LINE('',#550,#58);
#42=LINE('',#552,#59);
#43=LINE('',#554,#60);
#44=LINE('',#556,#61);
#45=LINE('',#558,#62);
#46=LINE('',#562,#63);
#47=LINE('',#566,#64);
#48=LINE('',#568,#65);
#49=LINE('',#570,#66);
#50=LINE('',#572,#67);
#51=LINE('',#574,#68);
#52=VECTOR('',#423,1.);
#53=VECTOR('',#424,1.);
#54=VECTOR('',#425,1.);
#55=VECTOR('',#426,1.);
#56=VECTOR('',#433,1.);
#57=VECTOR('',#438,1.);
#58=VECTOR('',#443,1.);
#59=VECTOR('',#444,1.);
#60=VECTOR('',#445,1.);
#61=VECTOR('',#448,1.);
#62=VECTOR('',#449,1.);
#63=VECTOR('',#454,1.);
#64=VECTOR('',#459,1.);
#65=VECTOR('',#460,1.);
#66=VECTOR('',#461,1.);
#67=VECTOR('',#462,1.);
#68=VECTOR('',#465,1.);
#69=SURFACE_STYLE_USAGE(.BOTH.,#72);
#70=SURFACE_STYLE_USAGE(.BOTH.,#73);
#71=SURFACE_STYLE_USAGE(.BOTH.,#74);
#72=SURFACE_SIDE_STYLE('',(#75));
#73=SURFACE_SIDE_STYLE('',(#76));
#74=SURFACE_SIDE_STYLE('',(#77));
#75=SURFACE_STYLE_FILL_AREA(#78);
#76=SURFACE_STYLE_FILL_AREA(#79);
#77=SURFACE_STYLE_FILL_AREA(#80);
#78=FILL_AREA_STYLE('',(#81));
#79=FILL_AREA_STYLE('',(#82));
#80=FILL_AREA_STYLE('',(#83));
#81=FILL_AREA_STYLE_COLOUR('',#347);
#82=FILL_AREA_STYLE_COLOUR('',#348);
#83=FILL_AREA_STYLE_COLOUR('',#347);
#84=MANIFOLD_SOLID_BREP('NOCUT',#87);
#85=MANIFOLD_SOLID_BREP('CUT',#88);
#86=MANIFOLD_SOLID_BREP('NOCUT',#89);
#87=CLOSED_SHELL('',(#119,#120,#121,#122,#123,#124));
#88=CLOSED_SHELL('',(#125,#126,#127,#128,#129,#130,#131,#132,#133,#134,
#135));
#89=CLOSED_SHELL('',(#136,#137,#138,#139));
#90=PLANE('',#363);
#91=PLANE('',#365);
#92=PLANE('',#367);
#93=PLANE('',#374);
#94=PLANE('',#375);
#95=PLANE('',#379);
#96=PLANE('',#380);
#97=PLANE('',#382);
#98=PLANE('',#385);
#99=PLANE('',#387);
#100=PLANE('',#392);
#101=FACE_OUTER_BOUND('',#165,.T.);
#102=FACE_OUTER_BOUND('',#166,.T.);
#103=FACE_OUTER_BOUND('',#169,.T.);
#104=FACE_OUTER_BOUND('',#170,.T.);
#105=FACE_OUTER_BOUND('',#171,.T.);
#106=FACE_OUTER_BOUND('',#172,.T.);
#107=FACE_OUTER_BOUND('',#173,.T.);
#108=FACE_OUTER_BOUND('',#174,.T.);
#109=FACE_OUTER_BOUND('',#175,.T.);
#110=FACE_OUTER_BOUND('',#176,.T.);
#111=FACE_OUTER_BOUND('',#177,.T.);
#112=FACE_OUTER_BOUND('',#178,.T.);
#113=FACE_OUTER_BOUND('',#179,.T.);
#114=FACE_OUTER_BOUND('',#180,.T.);
#115=FACE_OUTER_BOUND('',#185,.T.);
#116=CONICAL_SURFACE('',#362,7.99,41.8112002045927);
#117=CONICAL_SURFACE('',#389,7.99,45.0000000000001);
#118=TOROIDAL_SURFACE('',#360,8.,4.);
#119=ADVANCED_FACE('',(#147,#148),#140,.T.);
#120=ADVANCED_FACE('',(#149,#150),#118,.F.);
#121=ADVANCED_FACE('',(#151,#152),#116,.T.);
#122=ADVANCED_FACE('',(#101),#90,.F.);
#123=ADVANCED_FACE('',(#102),#91,.T.);
#124=ADVANCED_FACE('',(#153,#154),#141,.T.);
#125=ADVANCED_FACE('',(#103),#92,.T.);
#126=ADVANCED_FACE('',(#104),#142,.T.);
#127=ADVANCED_FACE('',(#105),#143,.F.);
#128=ADVANCED_FACE('',(#106),#93,.T.);
#129=ADVANCED_FACE('',(#107),#94,.F.);
#130=ADVANCED_FACE('',(#108),#144,.F.);
#131=ADVANCED_FACE('',(#109),#95,.T.);
#132=ADVANCED_FACE('',(#110),#96,.F.);
#133=ADVANCED_FACE('',(#111),#97,.T.);
#134=ADVANCED_FACE('',(#112),#145,.T.);
#135=ADVANCED_FACE('',(#113),#98,.F.);
#136=ADVANCED_FACE('',(#114),#99,.F.);
#137=ADVANCED_FACE('',(#155,#156),#117,.T.);
#138=ADVANCED_FACE('',(#157,#158),#146,.T.);
#139=ADVANCED_FACE('',(#115),#100,.F.);
#140=CYLINDRICAL_SURFACE('',#358,4.);
#141=CYLINDRICAL_SURFACE('',#366,7.99);
#142=CYLINDRICAL_SURFACE('',#371,0.1);
#143=CYLINDRICAL_SURFACE('',#373,0.1);
#144=CYLINDRICAL_SURFACE('',#378,0.5);
#145=CYLINDRICAL_SURFACE('',#384,4.);
#146=CYLINDRICAL_SURFACE('',#391,7.99);
#147=FACE_BOUND('',#159,.T.);
#148=FACE_BOUND('',#160,.T.);
#149=FACE_BOUND('',#161,.T.);
#150=FACE_BOUND('',#162,.T.);
#151=FACE_BOUND('',#163,.T.);
#152=FACE_BOUND('',#164,.T.);
#153=FACE_BOUND('',#167,.T.);
#154=FACE_BOUND('',#168,.T.);
#155=FACE_BOUND('',#181,.T.);
#156=FACE_BOUND('',#182,.T.);
#157=FACE_BOUND('',#183,.T.);
#158=FACE_BOUND('',#184,.T.);
#159=EDGE_LOOP('',(#186));
#160=EDGE_LOOP('',(#187));
#161=EDGE_LOOP('',(#188));
#162=EDGE_LOOP('',(#189));
#163=EDGE_LOOP('',(#190));
#164=EDGE_LOOP('',(#191));
#165=EDGE_LOOP('',(#192));
#166=EDGE_LOOP('',(#193));
#167=EDGE_LOOP('',(#194));
#168=EDGE_LOOP('',(#195));
#169=EDGE_LOOP('',(#196,#197,#198,#199));
#170=EDGE_LOOP('',(#200,#201,#202,#203,#204));
#171=EDGE_LOOP('',(#205,#206,#207,#208));
#172=EDGE_LOOP('',(#209,#210,#211,#212));
#173=EDGE_LOOP('',(#213,#214,#215,#216,#217));
#174=EDGE_LOOP('',(#218,#219,#220,#221,#222));
#175=EDGE_LOOP('',(#223,#224,#225,#226,#227,#228));
#176=EDGE_LOOP('',(#229,#230,#231,#232,#233));
#177=EDGE_LOOP('',(#234,#235,#236,#237,#238,#239));
#178=EDGE_LOOP('',(#240,#241,#242,#243));
#179=EDGE_LOOP('',(#244,#245,#246,#247));
#180=EDGE_LOOP('',(#248));
#181=EDGE_LOOP('',(#249));
#182=EDGE_LOOP('',(#250));
#183=EDGE_LOOP('',(#251));
#184=EDGE_LOOP('',(#252));
#185=EDGE_LOOP('',(#253));
#186=ORIENTED_EDGE('',*,*,#279,.F.);
#187=ORIENTED_EDGE('',*,*,#280,.F.);
#188=ORIENTED_EDGE('',*,*,#281,.T.);
#189=ORIENTED_EDGE('',*,*,#280,.T.);
#190=ORIENTED_EDGE('',*,*,#281,.F.);
#191=ORIENTED_EDGE('',*,*,#282,.F.);
#192=ORIENTED_EDGE('',*,*,#279,.T.);
#193=ORIENTED_EDGE('',*,*,#283,.F.);
#194=ORIENTED_EDGE('',*,*,#282,.T.);
#195=ORIENTED_EDGE('',*,*,#283,.T.);
#196=ORIENTED_EDGE('',*,*,#284,.F.);
#197=ORIENTED_EDGE('',*,*,#285,.T.);
#198=ORIENTED_EDGE('',*,*,#286,.T.);
#199=ORIENTED_EDGE('',*,*,#287,.T.);
#200=ORIENTED_EDGE('',*,*,#288,.F.);
#201=ORIENTED_EDGE('',*,*,#287,.F.);
#202=ORIENTED_EDGE('',*,*,#289,.F.);
#203=ORIENTED_EDGE('',*,*,#290,.F.);
#204=ORIENTED_EDGE('',*,*,#291,.F.);
#205=ORIENTED_EDGE('',*,*,#292,.F.);
#206=ORIENTED_EDGE('',*,*,#293,.F.);
#207=ORIENTED_EDGE('',*,*,#294,.F.);
#208=ORIENTED_EDGE('',*,*,#290,.T.);
#209=ORIENTED_EDGE('',*,*,#295,.F.);
#210=ORIENTED_EDGE('',*,*,#296,.F.);
#211=ORIENTED_EDGE('',*,*,#297,.T.);
#212=ORIENTED_EDGE('',*,*,#285,.F.);
#213=ORIENTED_EDGE('',*,*,#298,.T.);
#214=ORIENTED_EDGE('',*,*,#289,.T.);
#215=ORIENTED_EDGE('',*,*,#286,.F.);
#216=ORIENTED_EDGE('',*,*,#297,.F.);
#217=ORIENTED_EDGE('',*,*,#299,.F.);
#218=ORIENTED_EDGE('',*,*,#300,.F.);
#219=ORIENTED_EDGE('',*,*,#301,.T.);
#220=ORIENTED_EDGE('',*,*,#302,.T.);
#221=ORIENTED_EDGE('',*,*,#292,.T.);
#222=ORIENTED_EDGE('',*,*,#298,.F.);
#223=ORIENTED_EDGE('',*,*,#303,.F.);
#224=ORIENTED_EDGE('',*,*,#291,.T.);
#225=ORIENTED_EDGE('',*,*,#294,.T.);
#226=ORIENTED_EDGE('',*,*,#304,.F.);
#227=ORIENTED_EDGE('',*,*,#305,.F.);
#228=ORIENTED_EDGE('',*,*,#306,.T.);
#229=ORIENTED_EDGE('',*,*,#288,.T.);
#230=ORIENTED_EDGE('',*,*,#303,.T.);
#231=ORIENTED_EDGE('',*,*,#307,.T.);
#232=ORIENTED_EDGE('',*,*,#295,.T.);
#233=ORIENTED_EDGE('',*,*,#284,.T.);
#234=ORIENTED_EDGE('',*,*,#308,.T.);
#235=ORIENTED_EDGE('',*,*,#300,.T.);
#236=ORIENTED_EDGE('',*,*,#299,.T.);
#237=ORIENTED_EDGE('',*,*,#296,.T.);
#238=ORIENTED_EDGE('',*,*,#307,.F.);
#239=ORIENTED_EDGE('',*,*,#306,.F.);
#240=ORIENTED_EDGE('',*,*,#301,.F.);
#241=ORIENTED_EDGE('',*,*,#308,.F.);
#242=ORIENTED_EDGE('',*,*,#305,.T.);
#243=ORIENTED_EDGE('',*,*,#309,.F.);
#244=ORIENTED_EDGE('',*,*,#304,.T.);
#245=ORIENTED_EDGE('',*,*,#293,.T.);
#246=ORIENTED_EDGE('',*,*,#302,.F.);
#247=ORIENTED_EDGE('',*,*,#309,.T.);
#248=ORIENTED_EDGE('',*,*,#310,.T.);
#249=ORIENTED_EDGE('',*,*,#310,.F.);
#250=ORIENTED_EDGE('',*,*,#311,.T.);
#251=ORIENTED_EDGE('',*,*,#312,.T.);
#252=ORIENTED_EDGE('',*,*,#311,.F.);
#253=ORIENTED_EDGE('',*,*,#312,.F.);
#254=VERTEX_POINT('',#497);
#255=VERTEX_POINT('',#499);
#256=VERTEX_POINT('',#502);
#257=VERTEX_POINT('',#505);
#258=VERTEX_POINT('',#509);
#259=VERTEX_POINT('',#513);
#260=VERTEX_POINT('',#514);
#261=VERTEX_POINT('',#516);
#262=VERTEX_POINT('',#518);
#263=VERTEX_POINT('',#522);
#264=VERTEX_POINT('',#524);
#265=VERTEX_POINT('',#526);
#266=VERTEX_POINT('',#545);
#267=VERTEX_POINT('',#547);
#268=VERTEX_POINT('',#551);
#269=VERTEX_POINT('',#553);
#270=VERTEX_POINT('',#557);
#271=VERTEX_POINT('',#561);
#272=VERTEX_POINT('',#563);
#273=VERTEX_POINT('',#567);
#274=VERTEX_POINT('',#569);
#275=VERTEX_POINT('',#571);
#276=VERTEX_POINT('',#582);
#277=VERTEX_POINT('',#585);
#278=VERTEX_POINT('',#588);
#279=EDGE_CURVE('',#254,#254,#313,.T.);
#280=EDGE_CURVE('',#255,#255,#314,.T.);
#281=EDGE_CURVE('',#256,#256,#315,.T.);
#282=EDGE_CURVE('',#257,#257,#316,.T.);
#283=EDGE_CURVE('',#258,#258,#317,.T.);
#284=EDGE_CURVE('',#259,#260,#35,.T.);
#285=EDGE_CURVE('',#259,#261,#36,.T.);
#286=EDGE_CURVE('',#261,#262,#37,.T.);
#287=EDGE_CURVE('',#262,#260,#38,.T.);
#288=EDGE_CURVE('',#260,#263,#34,.T.);
#289=EDGE_CURVE('',#264,#262,#318,.T.);
#290=EDGE_CURVE('',#265,#264,#39,.T.);
#291=EDGE_CURVE('',#263,#265,#319,.T.);
#292=EDGE_CURVE('',#266,#264,#33,.T.);
#293=EDGE_CURVE('',#267,#266,#40,.T.);
#294=EDGE_CURVE('',#265,#267,#320,.T.);
#295=EDGE_CURVE('',#268,#259,#41,.T.);
#296=EDGE_CURVE('',#269,#268,#42,.T.);
#297=EDGE_CURVE('',#269,#261,#43,.T.);
#298=EDGE_CURVE('',#270,#264,#44,.T.);
#299=EDGE_CURVE('',#270,#269,#45,.T.);
#300=EDGE_CURVE('',#271,#270,#321,.T.);
#301=EDGE_CURVE('',#271,#272,#46,.T.);
#302=EDGE_CURVE('',#272,#266,#322,.T.);
#303=EDGE_CURVE('',#263,#273,#47,.T.);
#304=EDGE_CURVE('',#274,#267,#48,.T.);
#305=EDGE_CURVE('',#275,#274,#49,.T.);
#306=EDGE_CURVE('',#275,#273,#50,.T.);
#307=EDGE_CURVE('',#273,#268,#51,.T.);
#308=EDGE_CURVE('',#275,#271,#323,.T.);
#309=EDGE_CURVE('',#272,#274,#324,.T.);
#310=EDGE_CURVE('',#276,#276,#325,.T.);
#311=EDGE_CURVE('',#277,#277,#326,.T.);
#312=EDGE_CURVE('',#278,#278,#327,.T.);
#313=CIRCLE('',#356,4.);
#314=CIRCLE('',#357,4.);
#315=CIRCLE('',#359,7.54456585346866);
#316=CIRCLE('',#361,7.99);
#317=CIRCLE('',#364,7.99);
#318=CIRCLE('',#369,0.1);
#319=CIRCLE('',#370,0.1);
#320=CIRCLE('',#372,0.1);
#321=CIRCLE('',#376,0.5);
#322=CIRCLE('',#377,0.5);
#323=CIRCLE('',#381,4.);
#324=CIRCLE('',#383,4.);
#325=CIRCLE('',#386,7.49);
#326=CIRCLE('',#388,7.99);
#327=CIRCLE('',#390,7.99);
#328=PRESENTATION_LAYER_ASSIGNMENT('1','Layer 1',(#353,#354,#355,#86));
#329=PRESENTATION_LAYER_ASSIGNMENT('2','Layer 2',(#84));
#330=PRESENTATION_LAYER_ASSIGNMENT('3','Layer 3',(#85));
#331=STYLED_ITEM('',(#337),#353);
#332=STYLED_ITEM('',(#338),#354);
#333=STYLED_ITEM('',(#339),#355);
#334=STYLED_ITEM('',(#340),#84);
#335=STYLED_ITEM('',(#341),#85);
#336=STYLED_ITEM('',(#342),#86);
#337=PRESENTATION_STYLE_ASSIGNMENT((#343));
#338=PRESENTATION_STYLE_ASSIGNMENT((#344));
#339=PRESENTATION_STYLE_ASSIGNMENT((#345));
#340=PRESENTATION_STYLE_ASSIGNMENT((#69));
#341=PRESENTATION_STYLE_ASSIGNMENT((#70));
#342=PRESENTATION_STYLE_ASSIGNMENT((#71));
#343=CURVE_STYLE('',#349,POSITIVE_LENGTH_MEASURE(0.18),#346);
#344=CURVE_STYLE('',#350,POSITIVE_LENGTH_MEASURE(0.18),#346);
#345=CURVE_STYLE('',#351,POSITIVE_LENGTH_MEASURE(0.18),#346);
#346=COLOUR_RGB('Strong Stone',0.576470588235294,0.54508278019379,0.392156862745098);
#347=COLOUR_RGB('Medium Gray',0.490196078431373,0.490196078431373,0.490196078431373);
#348=COLOUR_RGB('Light Gray',0.8,0.8,0.8);
#349=DRAUGHTING_PRE_DEFINED_CURVE_FONT('continuous');
#350=DRAUGHTING_PRE_DEFINED_CURVE_FONT('continuous');
#351=DRAUGHTING_PRE_DEFINED_CURVE_FONT('continuous');
#352=AXIS2_PLACEMENT_3D('',#492,#393,#394);
#353=AXIS2_PLACEMENT_3D('MCS',#493,#395,#396);
#354=AXIS2_PLACEMENT_3D('PCS',#494,#397,#398);
#355=AXIS2_PLACEMENT_3D('CSW',#495,#399,#400);
#356=AXIS2_PLACEMENT_3D('',#496,#401,#402);
#357=AXIS2_PLACEMENT_3D('',#498,#403,#404);
#358=AXIS2_PLACEMENT_3D('',#500,#405,#406);
#359=AXIS2_PLACEMENT_3D('',#501,#407,#408);
#360=AXIS2_PLACEMENT_3D('',#503,#409,#410);
#361=AXIS2_PLACEMENT_3D('',#504,#411,#412);
#362=AXIS2_PLACEMENT_3D('',#506,#413,#414);
#363=AXIS2_PLACEMENT_3D('',#507,#415,#416);
#364=AXIS2_PLACEMENT_3D('',#508,#417,#418);
#365=AXIS2_PLACEMENT_3D('',#510,#419,#420);
#366=AXIS2_PLACEMENT_3D('',#511,#421,#422);
#367=AXIS2_PLACEMENT_3D('',#520,#427,#428);
#368=AXIS2_PLACEMENT_3D('',#521,#429,#430);
#369=AXIS2_PLACEMENT_3D('',#523,#431,#432);
#370=AXIS2_PLACEMENT_3D('',#527,#434,#435);
#371=AXIS2_PLACEMENT_3D('',#528,#436,#437);
#372=AXIS2_PLACEMENT_3D('',#548,#439,#440);
#373=AXIS2_PLACEMENT_3D('',#549,#441,#442);
#374=AXIS2_PLACEMENT_3D('',#555,#446,#447);
#375=AXIS2_PLACEMENT_3D('',#559,#450,#451);
#376=AXIS2_PLACEMENT_3D('',#560,#452,#453);
#377=AXIS2_PLACEMENT_3D('',#564,#455,#456);
#378=AXIS2_PLACEMENT_3D('',#565,#457,#458);
#379=AXIS2_PLACEMENT_3D('',#573,#463,#464);
#380=AXIS2_PLACEMENT_3D('',#575,#466,#467);
#381=AXIS2_PLACEMENT_3D('',#576,#468,#469);
#382=AXIS2_PLACEMENT_3D('',#577,#470,#471);
#383=AXIS2_PLACEMENT_3D('',#578,#472,#473);
#384=AXIS2_PLACEMENT_3D('',#579,#474,#475);
#385=AXIS2_PLACEMENT_3D('',#580,#476,#477);
#386=AXIS2_PLACEMENT_3D('',#581,#478,#479);
#387=AXIS2_PLACEMENT_3D('',#583,#480,#481);
#388=AXIS2_PLACEMENT_3D('',#584,#482,#483);
#389=AXIS2_PLACEMENT_3D('',#586,#484,#485);
#390=AXIS2_PLACEMENT_3D('',#587,#486,#487);
#391=AXIS2_PLACEMENT_3D('',#589,#488,#489);
#392=AXIS2_PLACEMENT_3D('',#590,#490,#491);
#393=DIRECTION('',(0.,0.,1.));
#394=DIRECTION('',(1.,0.,0.));
#395=DIRECTION('',(0.,0.,1.));
#396=DIRECTION('',(1.,0.,0.));
#397=DIRECTION('',(0.,0.,1.));
#398=DIRECTION('',(1.,0.,0.));
#399=DIRECTION('',(0.,0.,1.));
#400=DIRECTION('',(1.,0.,0.));
#401=DIRECTION('',(0.,0.,-1.));
#402=DIRECTION('',(1.,0.,0.));
#403=DIRECTION('',(1.29064155981908E-16,0.,1.));
#404=DIRECTION('',(1.,0.,0.));
#405=DIRECTION('',(1.29064155981908E-16,0.,1.));
#406=DIRECTION('',(-1.,0.,0.));
#407=DIRECTION('',(-1.29064155981908E-16,0.,-1.));
#408=DIRECTION('',(-1.,0.,0.));
#409=DIRECTION('',(1.29064155981908E-16,0.,1.));
#410=DIRECTION('',(-1.,0.,0.));
#411=DIRECTION('',(1.29064155981908E-16,0.,1.));
#412=DIRECTION('',(1.,0.,0.));
#413=DIRECTION('',(1.29064155981908E-16,0.,1.));
#414=DIRECTION('',(-1.,0.,1.61468866586834E-16));
#415=DIRECTION('',(0.,0.,1.));
#416=DIRECTION('',(-1.,0.,0.));
#417=DIRECTION('',(0.,0.,-1.));
#418=DIRECTION('',(1.,0.,0.));
#419=DIRECTION('',(0.,0.,1.));
#420=DIRECTION('',(1.,0.,0.));
#421=DIRECTION('',(1.29064155981908E-16,0.,1.));
#422=DIRECTION('',(-1.,0.,0.));
#423=DIRECTION('',(0.707106781186548,-0.707106781186547,0.));
#424=DIRECTION('',(2.16840434497101E-16,1.,0.));
#425=DIRECTION('',(1.,0.,0.));
#426=DIRECTION('',(0.,-1.,0.));
#427=DIRECTION('',(0.,0.,-1.));
#428=DIRECTION('',(1.,0.,0.));
#429=DIRECTION('',(-0.707106781186547,-0.707106781186548,0.));
#430=DIRECTION('',(-0.707106781186548,0.707106781186547,0.));
#431=DIRECTION('',(0.,1.,0.));
#432=DIRECTION('',(0.,0.,1.00000000000003));
#433=DIRECTION('',(0.,1.,0.));
#434=DIRECTION('',(0.,-1.,0.));
#435=DIRECTION('',(0.,0.,1.00000000000003));
#436=DIRECTION('',(0.,1.,0.));
#437=DIRECTION('',(0.,0.,1.00000000000003));
#438=DIRECTION('',(0.,1.,0.));
#439=DIRECTION('',(0.,1.,0.));
#440=DIRECTION('',(0.,0.,1.00000000000003));
#441=DIRECTION('',(0.,1.,0.));
#442=DIRECTION('',(0.,0.,1.00000000000003));
#443=DIRECTION('',(0.,0.,-1.));
#444=DIRECTION('',(0.,-1.,0.));
#445=DIRECTION('',(0.,0.,-1.));
#446=DIRECTION('',(-1.,0.,0.));
#447=DIRECTION('',(0.,0.,-1.));
#448=DIRECTION('',(0.,0.,-1.));
#449=DIRECTION('',(-1.,0.,0.));
#450=DIRECTION('',(0.,-1.,0.));
#451=DIRECTION('',(0.,0.,-1.));
#452=DIRECTION('',(0.,0.,-1.));
#453=DIRECTION('',(0.999999999999999,0.,0.));
#454=DIRECTION('',(0.,0.,-1.));
#455=DIRECTION('',(0.,0.,-1.));
#456=DIRECTION('',(0.999999999999999,0.,0.));
#457=DIRECTION('',(0.,0.,-1.));
#458=DIRECTION('',(0.999999999999999,0.,0.));
#459=DIRECTION('',(0.,0.,1.));
#460=DIRECTION('',(-1.,0.,0.));
#461=DIRECTION('',(0.,0.,-1.));
#462=DIRECTION('',(-1.,0.,0.));
#463=DIRECTION('',(0.,-1.,0.));
#464=DIRECTION('',(0.,0.,-1.));
#465=DIRECTION('',(-0.707106781186548,0.707106781186547,0.));
#466=DIRECTION('',(0.707106781186547,0.707106781186548,0.));
#467=DIRECTION('',(-0.707106781186548,0.707106781186547,0.));
#468=DIRECTION('',(0.,0.,1.));
#469=DIRECTION('',(-1.,0.,0.));
#470=DIRECTION('',(0.,0.,1.));
#471=DIRECTION('',(-1.,0.,0.));
#472=DIRECTION('',(0.,0.,-1.));
#473=DIRECTION('',(1.,0.,0.));
#474=DIRECTION('',(0.,0.,-1.));
#475=DIRECTION('',(1.,0.,0.));
#476=DIRECTION('',(0.,0.,1.));
#477=DIRECTION('',(-1.,0.,0.));
#478=DIRECTION('',(1.29064155981908E-16,0.,1.));
#479=DIRECTION('',(1.,0.,0.));
#480=DIRECTION('',(-1.29064155981908E-16,0.,-1.));
#481=DIRECTION('',(1.,0.,-1.31838984174237E-16));
#482=DIRECTION('',(1.29064155981908E-16,0.,1.));
#483=DIRECTION('',(1.,0.,0.));
#484=DIRECTION('',(-1.29064155981908E-16,0.,-1.));
#485=DIRECTION('',(1.,0.,-1.30793940588931E-16));
#486=DIRECTION('',(0.,0.,1.));
#487=DIRECTION('',(1.,0.,0.));
#488=DIRECTION('',(1.29064155981908E-16,0.,1.));
#489=DIRECTION('',(-1.,0.,0.));
#490=DIRECTION('',(0.,0.,1.));
#491=DIRECTION('',(1.,0.,0.));
#492=CARTESIAN_POINT('',(0.,0.,0.));
#493=CARTESIAN_POINT('',(-3.03662366656379E-15,0.,0.));
#494=CARTESIAN_POINT('',(6.19507948713157E-15,0.,48.));
#495=CARTESIAN_POINT('',(-8.18920844374052E-13,9.37265086897021E-13,-52.8003629433023));
#496=CARTESIAN_POINT('',(-6.30483086268718E-15,0.,-48.8503629433023));
#497=CARTESIAN_POINT('',(3.99999999999999,0.,-48.8503629433023));
#498=CARTESIAN_POINT('',(-3.61379636749343E-15,0.,-28.));
#499=CARTESIAN_POINT('',(4.,0.,-28.));
#500=CARTESIAN_POINT('',(-6.3375577860018E-15,0.,-49.103933914));
#501=CARTESIAN_POINT('',(-3.33309304320572E-15,0.,-24.0260121114713));
#502=CARTESIAN_POINT('',(-7.54456585346866,0.,-24.0260121114713));
#503=CARTESIAN_POINT('',(-3.845992435921E-15,0.,-28.));
#504=CARTESIAN_POINT('',(-3.03662366656379E-15,0.,-23.5280170815935));
#505=CARTESIAN_POINT('',(7.99,0.,-23.5280170815935));
#506=CARTESIAN_POINT('',(-3.26881973499137E-15,0.,-23.5280170815935));
#507=CARTESIAN_POINT('',(3.99999999999918,3.86000000000093,-48.8503629433023));
#508=CARTESIAN_POINT('',(7.70371977754894E-31,0.,6.93889390390723E-15));
#509=CARTESIAN_POINT('',(7.99,0.,6.93889390390723E-15));
#510=CARTESIAN_POINT('',(2.21694507692926E-17,0.,7.105427357601E-15));
#511=CARTESIAN_POINT('',(-6.3375577860018E-15,0.,-49.103933914));
#512=CARTESIAN_POINT('',(-6.47870866461989,-2.00657270961856,-53.0003629433023));
#513=CARTESIAN_POINT('',(-6.70000000000082,-1.78528137423763,-53.0003629433023));
#514=CARTESIAN_POINT('',(-4.5721359550004,-3.91314541923805,-53.0003629433023));
#515=CARTESIAN_POINT('',(-6.70000000000082,-3.99999999999906,-53.0003629433023));
#516=CARTESIAN_POINT('',(-6.70000000000082,9.37265086897021E-13,-53.0003629433023));
#517=CARTESIAN_POINT('',(-6.70000000000082,9.37265086897021E-13,-53.0003629433023));
#518=CARTESIAN_POINT('',(-4.5721359550004,9.37265086897021E-13,-53.0003629433023));
#519=CARTESIAN_POINT('',(-4.5721359550004,-3.99999999999906,-53.0003629433023));
#520=CARTESIAN_POINT('',(-4.4721359550004,9.37265086897021E-13,-53.0003629433023));
#521=CARTESIAN_POINT('',(-4.5721359550004,-3.91314541923805,-52.9003629433023));
#522=CARTESIAN_POINT('',(-4.48528137423939,-3.99999999999906,-52.9499238331331));
#523=CARTESIAN_POINT('',(-4.5721359550004,9.37265086897021E-13,-52.9003629433023));
#524=CARTESIAN_POINT('',(-4.4721359550004,9.37098553443327E-13,-52.9003629433023));
#525=CARTESIAN_POINT('',(-4.4721359550004,9.37265086897021E-13,-52.9003629433023));
#526=CARTESIAN_POINT('',(-4.4721359550004,-3.99999999999906,-52.9003629433023));
#527=CARTESIAN_POINT('',(-4.5721359550004,-3.99999999999906,-52.9003629433023));
#528=CARTESIAN_POINT('',(-4.5721359550004,9.37265086897021E-13,-52.9003629433023));
#529=CARTESIAN_POINT('',(-4.3721359550004,0.0101020514443015,-52.8003629433023));
#530=CARTESIAN_POINT('',(-4.38308477441972,0.00786713303903441,-52.8003629433023));
#531=CARTESIAN_POINT('',(-4.3942664192328,0.00598770711863608,-52.8022146736469));
#532=CARTESIAN_POINT('',(-4.4047439616935,0.00456249714298544,-52.805828727806));
#533=CARTESIAN_POINT('',(-4.41522745622296,0.00313647753589711,-52.8094448350322));
#534=CARTESIAN_POINT('',(-4.42529083916513,0.00212171079153863,-52.8149280348984));
#535=CARTESIAN_POINT('',(-4.43405483410487,0.00145228088937628,-52.8218387278624));
#536=CARTESIAN_POINT('',(-4.44272870597758,0.000789734956951377,-52.8286783558784));
#537=CARTESIAN_POINT('',(-4.45036894342288,0.000438334165624403,-52.8371014269406));
#538=CARTESIAN_POINT('',(-4.45633762529441,0.000249649547332458,-52.846417797833));
#539=CARTESIAN_POINT('',(-4.46233244177994,6.01387500324085E-5,-52.8557749616111));
#540=CARTESIAN_POINT('',(-4.46680637254721,2.17187462613912E-5,-52.8662888755503));
#541=CARTESIAN_POINT('',(-4.46939209761972,7.52881094551685E-6,-52.8770983194538));
#542=CARTESIAN_POINT('',(-4.47120874322964,-2.44057209941182E-6,-52.8846926801311));
#543=CARTESIAN_POINT('',(-4.4721359550004,9.37098553443327E-13,-52.8925543189191));
#544=CARTESIAN_POINT('',(-4.4721359550004,9.37098553443327E-13,-52.9003629433023));
#545=CARTESIAN_POINT('',(-4.3721359550004,0.0101020514443015,-52.8003629433023));
#546=CARTESIAN_POINT('',(-4.3721359550004,9.37265086897021E-13,-52.8003629433023));
#547=CARTESIAN_POINT('',(-4.3721359550004,-3.99999999999906,-52.8003629433023));
#548=CARTESIAN_POINT('',(-4.3721359550004,-3.99999999999906,-52.9003629433023));
#549=CARTESIAN_POINT('',(-4.3721359550004,9.37265086897021E-13,-52.9003629433023));
#550=CARTESIAN_POINT('',(-6.70000000000082,-1.78528137423763,-52.8003629433023));
#551=CARTESIAN_POINT('',(-6.70000000000082,-1.78528137423763,-48.8503629433023));
#552=CARTESIAN_POINT('',(-6.70000000000082,4.00000000000094,-48.8503629433023));
#553=CARTESIAN_POINT('',(-6.70000000000082,9.37265086897021E-13,-48.8503629433023));
#554=CARTESIAN_POINT('',(-6.70000000000082,9.37265086897021E-13,-48.1503629433023));
#555=CARTESIAN_POINT('',(-6.70000000000082,9.37265086897021E-13,-52.8003629433023));
#556=CARTESIAN_POINT('',(-4.4721359550004,9.36932019989633E-13,-48.1503629433023));
#557=CARTESIAN_POINT('',(-4.4721359550004,9.36932019989633E-13,-48.8503629433023));
#558=CARTESIAN_POINT('',(-4.4721359550004,9.37265086897021E-13,-48.8503629433023));
#559=CARTESIAN_POINT('',(-4.4721359550004,9.37265086897021E-13,-48.1503629433023));
#560=CARTESIAN_POINT('',(-4.4721359550004,0.500000000000937,-48.8503629433023));
#561=CARTESIAN_POINT('',(-3.97523196000044,0.444444444445382,-48.8503629433023));
#562=CARTESIAN_POINT('',(-3.97523196000044,0.444444444445382,-48.1503629433023));
#563=CARTESIAN_POINT('',(-3.97523196000045,0.444444444445382,-52.8003629433023));
#564=CARTESIAN_POINT('',(-4.4721359550004,0.500000000000937,-52.8003629433023));
#565=CARTESIAN_POINT('',(-4.4721359550004,0.500000000000937,-48.1503629433023));
#566=CARTESIAN_POINT('',(-4.48528137423939,-3.99999999999906,-48.1503629433023));
#567=CARTESIAN_POINT('',(-4.48528137423939,-3.99999999999906,-48.8503629433023));
#568=CARTESIAN_POINT('',(6.15110001080049,-3.99999999999906,-52.8003629433023));
#569=CARTESIAN_POINT('',(-8.18920844374052E-13,-3.99999999999906,-52.8003629433023));
#570=CARTESIAN_POINT('',(-8.18186080561759E-13,-3.99999999999906,-48.1503629433023));
#571=CARTESIAN_POINT('',(-8.18920844374052E-13,-3.99999999999906,-48.8503629433023));
#572=CARTESIAN_POINT('',(-3.86000000000082,-3.99999999999906,-48.8503629433023));
#573=CARTESIAN_POINT('',(-8.18920844374052E-13,-3.99999999999906,-48.1503629433023));
#574=CARTESIAN_POINT('',(-8.1726406871201,-0.312640687118348,-48.8503629433023));
#575=CARTESIAN_POINT('',(-4.2426406871201,-4.24264068711835,-53.3003629433023));
#576=CARTESIAN_POINT('',(-8.18920844374052E-13,9.37265086897021E-13,-48.8503629433023));
#577=CARTESIAN_POINT('',(3.99999999999918,3.86000000000093,-48.8503629433023));
#578=CARTESIAN_POINT('',(-8.18920844374052E-13,9.37265086897021E-13,-52.8003629433023));
#579=CARTESIAN_POINT('',(-8.18920844374052E-13,9.37265086897021E-13,-48.1503629433023));
#580=CARTESIAN_POINT('',(6.15110001080049,4.00000000000094,-52.8003629433023));
#581=CARTESIAN_POINT('',(6.19507948713157E-15,0.,48.));
#582=CARTESIAN_POINT('',(7.49,0.,48.));
#583=CARTESIAN_POINT('',(7.49,0.,48.));
#584=CARTESIAN_POINT('',(6.13054740914061E-15,0.,47.5));
#585=CARTESIAN_POINT('',(7.99,0.,47.5));
#586=CARTESIAN_POINT('',(6.13054740914061E-15,0.,47.5));
#587=CARTESIAN_POINT('',(7.70371977754894E-31,0.,6.93889390390723E-15));
#588=CARTESIAN_POINT('',(7.99,0.,6.93889390390723E-15));
#589=CARTESIAN_POINT('',(-6.3375577860018E-15,0.,-49.103933914));
#590=CARTESIAN_POINT('',(2.21694507692926E-17,0.,7.105427357601E-15));
#591=MECHANICAL_DESIGN_GEOMETRIC_PRESENTATION_REPRESENTATION('',(#331,#332,
#333,#334,#335,#336),#592);
#592=(
GEOMETRIC_REPRESENTATION_CONTEXT(3)
GLOBAL_UNCERTAINTY_ASSIGNED_CONTEXT((#593))
GLOBAL_UNIT_ASSIGNED_CONTEXT((#599,#595,#594))
REPRESENTATION_CONTEXT('A16H-SGXN11-25','TOP_LEVEL_ASSEMBLY_PART')
);
#593=UNCERTAINTY_MEASURE_WITH_UNIT(LENGTH_MEASURE(0.0508),#599,
'DISTANCE_ACCURACY_VALUE','Maximum Tolerance applied to model');
#594=(
NAMED_UNIT(*)
SI_UNIT($,.STERADIAN.)
SOLID_ANGLE_UNIT()
);
#595=(
CONVERSION_BASED_UNIT('DEGREE',#597)
NAMED_UNIT(#596)
PLANE_ANGLE_UNIT()
);
#596=DIMENSIONAL_EXPONENTS(0.,0.,0.,0.,0.,0.,0.);
#597=PLANE_ANGLE_MEASURE_WITH_UNIT(PLANE_ANGLE_MEASURE(0.0174532925),#598);
#598=(
NAMED_UNIT(*)
PLANE_ANGLE_UNIT()
SI_UNIT($,.RADIAN.)
);
#599=(
LENGTH_UNIT()
NAMED_UNIT(*)
SI_UNIT(.MILLI.,.METRE.)
);
ENDSEC;
END-ISO-10303-21;
