ISO-10303-21;
HEADER;
/* Generated by software containing ST-Developer
 * from STEP Tools, Inc. (www.steptools.com) 
 */
/* OPTION: using custom schema-name function */

FILE_DESCRIPTION(
/* description */ (''),
/* implementation_level */ '2;1');

FILE_NAME(
/* name */ 'A10G-SGXN08-078-R.stp',
/* time_stamp */ '2018-04-11T16:03:03+06:00',
/* author */ (''),
/* organization */ (''),
/* preprocessor_version */ 'ST-DEVELOPER v16',
/* originating_system */ 'SIEMENS PLM Software NX 11.0',
/* authorisation */ '');

FILE_SCHEMA (('AUTOMOTIVE_DESIGN { 1 0 10303 214 3 1 1 1 }'));
ENDSEC;

DATA;
#10=CONSTRUCTIVE_GEOMETRY_REPRESENTATION_RELATIONSHIP(
'supplemental geometry','',#32,#11);
#11=CONSTRUCTIVE_GEOMETRY_REPRESENTATION('supplemental geometry',(#353,
#354,#355),#604);
#12=PROPERTY_DEFINITION_REPRESENTATION(#16,#14);
#13=PROPERTY_DEFINITION_REPRESENTATION(#17,#15);
#14=REPRESENTATION('',(#18),#604);
#15=REPRESENTATION('',(#19),#604);
#16=PROPERTY_DEFINITION('pmi validation property','',#23);
#17=PROPERTY_DEFINITION('pmi validation property','',#23);
#18=VALUE_REPRESENTATION_ITEM('number of annotations',COUNT_MEASURE(0.));
#19=VALUE_REPRESENTATION_ITEM('number of views',COUNT_MEASURE(0.));
#20=SHAPE_REPRESENTATION_RELATIONSHIP('None',
'relationship between A10G-SGXN08-078-R-None and A10G-SGXN08-078-R-Non
e',#32,#21);
#21=ADVANCED_BREP_SHAPE_REPRESENTATION('A10G-SGXN08-078-R-None',(#85,#86,
#87),#604);
#22=SHAPE_DEFINITION_REPRESENTATION(#23,#32);
#23=PRODUCT_DEFINITION_SHAPE('','',#24);
#24=PRODUCT_DEFINITION(' ','',#26,#25);
#25=PRODUCT_DEFINITION_CONTEXT('part definition',#31,'design');
#26=PRODUCT_DEFINITION_FORMATION_WITH_SPECIFIED_SOURCE(' ',' ',#28,
 .NOT_KNOWN.);
#27=PRODUCT_RELATED_PRODUCT_CATEGORY('part','',(#28));
#28=PRODUCT('inpu51BBk0dx','inpu51BBk0dx',' ',(#29));
#29=PRODUCT_CONTEXT(' ',#31,'mechanical');
#30=APPLICATION_PROTOCOL_DEFINITION('international standard',
'automotive_design',2010,#31);
#31=APPLICATION_CONTEXT(
'core data for automotive mechanical design processes');
#32=SHAPE_REPRESENTATION('A10G-SGXN08-078-R-None',(#352),#604);
#33=B_SPLINE_CURVE_WITH_KNOTS('',3,(#535,#536,#537,#538,#539,#540,#541,
#542,#543,#544,#545,#546,#547,#548,#549,#550),.UNSPECIFIED.,.F.,.F.,(4,
3,3,3,3,4),(0.,0.254961179874654,0.512419575467447,0.73278647399899,0.929375494841052,
1.),.UNSPECIFIED.);
#34=B_SPLINE_CURVE_WITH_KNOTS('',3,(#552,#553,#554,#555,#556,#557,#558,
#559,#560,#561,#562,#563,#564,#565,#566,#567),.UNSPECIFIED.,.F.,.F.,(4,
3,3,3,3,4),(0.,0.201833406886486,0.403147864768255,0.61228208329938,0.833201171421387,
1.),.UNSPECIFIED.);
#35=ELLIPSE('',#367,0.14142135623731,0.1);
#36=LINE('',#509,#53);
#37=LINE('',#514,#54);
#38=LINE('',#516,#55);
#39=LINE('',#518,#56);
#40=LINE('',#520,#57);
#41=LINE('',#522,#58);
#42=LINE('',#524,#59);
#43=LINE('',#526,#60);
#44=LINE('',#528,#61);
#45=LINE('',#530,#62);
#46=LINE('',#572,#63);
#47=LINE('',#576,#64);
#48=LINE('',#580,#65);
#49=LINE('',#584,#66);
#50=LINE('',#586,#67);
#51=LINE('',#588,#68);
#52=LINE('',#590,#69);
#53=VECTOR('',#422,1.);
#54=VECTOR('',#425,1.);
#55=VECTOR('',#426,1.);
#56=VECTOR('',#427,1.);
#57=VECTOR('',#430,1.);
#58=VECTOR('',#431,1.);
#59=VECTOR('',#432,1.);
#60=VECTOR('',#435,1.);
#61=VECTOR('',#436,1.);
#62=VECTOR('',#437,1.);
#63=VECTOR('',#446,1.);
#64=VECTOR('',#451,1.);
#65=VECTOR('',#456,1.);
#66=VECTOR('',#461,1.);
#67=VECTOR('',#464,1.);
#68=VECTOR('',#467,1.);
#69=VECTOR('',#470,1.);
#70=SURFACE_STYLE_USAGE(.BOTH.,#73);
#71=SURFACE_STYLE_USAGE(.BOTH.,#74);
#72=SURFACE_STYLE_USAGE(.BOTH.,#75);
#73=SURFACE_SIDE_STYLE('',(#76));
#74=SURFACE_SIDE_STYLE('',(#77));
#75=SURFACE_SIDE_STYLE('',(#78));
#76=SURFACE_STYLE_FILL_AREA(#79);
#77=SURFACE_STYLE_FILL_AREA(#80);
#78=SURFACE_STYLE_FILL_AREA(#81);
#79=FILL_AREA_STYLE('',(#82));
#80=FILL_AREA_STYLE('',(#83));
#81=FILL_AREA_STYLE('',(#84));
#82=FILL_AREA_STYLE_COLOUR('',#347);
#83=FILL_AREA_STYLE_COLOUR('',#348);
#84=FILL_AREA_STYLE_COLOUR('',#347);
#85=MANIFOLD_SOLID_BREP('NOCUT',#88);
#86=MANIFOLD_SOLID_BREP('CUT',#89);
#87=MANIFOLD_SOLID_BREP('NOCUT',#90);
#88=CLOSED_SHELL('',(#120,#121,#122,#123,#124,#125));
#89=CLOSED_SHELL('',(#126,#127,#128,#129,#130,#131,#132,#133,#134,#135,
#136));
#90=CLOSED_SHELL('',(#137,#138,#139,#140));
#91=PLANE('',#365);
#92=PLANE('',#366);
#93=PLANE('',#368);
#94=PLANE('',#369);
#95=PLANE('',#370);
#96=PLANE('',#378);
#97=PLANE('',#380);
#98=PLANE('',#381);
#99=PLANE('',#382);
#100=PLANE('',#389);
#101=PLANE('',#391);
#102=FACE_OUTER_BOUND('',#168,.T.);
#103=FACE_OUTER_BOUND('',#169,.T.);
#104=FACE_OUTER_BOUND('',#170,.T.);
#105=FACE_OUTER_BOUND('',#171,.T.);
#106=FACE_OUTER_BOUND('',#172,.T.);
#107=FACE_OUTER_BOUND('',#173,.T.);
#108=FACE_OUTER_BOUND('',#174,.T.);
#109=FACE_OUTER_BOUND('',#175,.T.);
#110=FACE_OUTER_BOUND('',#176,.T.);
#111=FACE_OUTER_BOUND('',#177,.T.);
#112=FACE_OUTER_BOUND('',#178,.T.);
#113=FACE_OUTER_BOUND('',#179,.T.);
#114=FACE_OUTER_BOUND('',#180,.T.);
#115=FACE_OUTER_BOUND('',#183,.T.);
#116=FACE_OUTER_BOUND('',#186,.T.);
#117=TOROIDAL_SURFACE('',#364,7.,4.);
#118=CONICAL_SURFACE('',#363,7.42750000000002,45.0000000000005);
#119=CONICAL_SURFACE('',#390,7.92750000000003,45.);
#120=ADVANCED_FACE('',(#148,#149),#141,.T.);
#121=ADVANCED_FACE('',(#150,#151),#142,.T.);
#122=ADVANCED_FACE('',(#152,#153),#118,.T.);
#123=ADVANCED_FACE('',(#154,#155),#117,.F.);
#124=ADVANCED_FACE('',(#102),#91,.T.);
#125=ADVANCED_FACE('',(#103),#92,.F.);
#126=ADVANCED_FACE('',(#104),#93,.F.);
#127=ADVANCED_FACE('',(#105),#94,.F.);
#128=ADVANCED_FACE('',(#106),#95,.F.);
#129=ADVANCED_FACE('',(#107),#143,.F.);
#130=ADVANCED_FACE('',(#108),#144,.T.);
#131=ADVANCED_FACE('',(#109),#96,.F.);
#132=ADVANCED_FACE('',(#110),#97,.T.);
#133=ADVANCED_FACE('',(#111),#98,.F.);
#134=ADVANCED_FACE('',(#112),#99,.T.);
#135=ADVANCED_FACE('',(#113),#145,.F.);
#136=ADVANCED_FACE('',(#114),#146,.T.);
#137=ADVANCED_FACE('',(#156,#157),#147,.T.);
#138=ADVANCED_FACE('',(#115),#100,.F.);
#139=ADVANCED_FACE('',(#158,#159),#119,.T.);
#140=ADVANCED_FACE('',(#116),#101,.T.);
#141=CYLINDRICAL_SURFACE('',#358,7.92750000000003);
#142=CYLINDRICAL_SURFACE('',#361,3.);
#143=CYLINDRICAL_SURFACE('',#374,0.5);
#144=CYLINDRICAL_SURFACE('',#377,3.);
#145=CYLINDRICAL_SURFACE('',#383,0.1);
#146=CYLINDRICAL_SURFACE('',#384,0.1);
#147=CYLINDRICAL_SURFACE('',#387,7.92750000000003);
#148=FACE_BOUND('',#160,.T.);
#149=FACE_BOUND('',#161,.T.);
#150=FACE_BOUND('',#162,.T.);
#151=FACE_BOUND('',#163,.T.);
#152=FACE_BOUND('',#164,.T.);
#153=FACE_BOUND('',#165,.T.);
#154=FACE_BOUND('',#166,.T.);
#155=FACE_BOUND('',#167,.T.);
#156=FACE_BOUND('',#181,.T.);
#157=FACE_BOUND('',#182,.T.);
#158=FACE_BOUND('',#184,.T.);
#159=FACE_BOUND('',#185,.T.);
#160=EDGE_LOOP('',(#187));
#161=EDGE_LOOP('',(#188));
#162=EDGE_LOOP('',(#189));
#163=EDGE_LOOP('',(#190));
#164=EDGE_LOOP('',(#191));
#165=EDGE_LOOP('',(#192));
#166=EDGE_LOOP('',(#193));
#167=EDGE_LOOP('',(#194));
#168=EDGE_LOOP('',(#195));
#169=EDGE_LOOP('',(#196));
#170=EDGE_LOOP('',(#197,#198,#199,#200,#201));
#171=EDGE_LOOP('',(#202,#203,#204,#205));
#172=EDGE_LOOP('',(#206,#207,#208,#209));
#173=EDGE_LOOP('',(#210,#211,#212,#213,#214,#215,#216));
#174=EDGE_LOOP('',(#217,#218,#219,#220));
#175=EDGE_LOOP('',(#221,#222,#223,#224,#225,#226));
#176=EDGE_LOOP('',(#227,#228,#229,#230,#231));
#177=EDGE_LOOP('',(#232,#233,#234,#235));
#178=EDGE_LOOP('',(#236,#237,#238,#239,#240));
#179=EDGE_LOOP('',(#241,#242,#243,#244));
#180=EDGE_LOOP('',(#245,#246,#247,#248));
#181=EDGE_LOOP('',(#249));
#182=EDGE_LOOP('',(#250));
#183=EDGE_LOOP('',(#251));
#184=EDGE_LOOP('',(#252));
#185=EDGE_LOOP('',(#253));
#186=EDGE_LOOP('',(#254));
#187=ORIENTED_EDGE('',*,*,#280,.T.);
#188=ORIENTED_EDGE('',*,*,#281,.T.);
#189=ORIENTED_EDGE('',*,*,#282,.T.);
#190=ORIENTED_EDGE('',*,*,#283,.F.);
#191=ORIENTED_EDGE('',*,*,#280,.F.);
#192=ORIENTED_EDGE('',*,*,#284,.T.);
#193=ORIENTED_EDGE('',*,*,#284,.F.);
#194=ORIENTED_EDGE('',*,*,#283,.T.);
#195=ORIENTED_EDGE('',*,*,#282,.F.);
#196=ORIENTED_EDGE('',*,*,#281,.F.);
#197=ORIENTED_EDGE('',*,*,#285,.F.);
#198=ORIENTED_EDGE('',*,*,#286,.T.);
#199=ORIENTED_EDGE('',*,*,#287,.F.);
#200=ORIENTED_EDGE('',*,*,#288,.F.);
#201=ORIENTED_EDGE('',*,*,#289,.T.);
#202=ORIENTED_EDGE('',*,*,#290,.F.);
#203=ORIENTED_EDGE('',*,*,#289,.F.);
#204=ORIENTED_EDGE('',*,*,#291,.F.);
#205=ORIENTED_EDGE('',*,*,#292,.T.);
#206=ORIENTED_EDGE('',*,*,#293,.F.);
#207=ORIENTED_EDGE('',*,*,#292,.F.);
#208=ORIENTED_EDGE('',*,*,#294,.F.);
#209=ORIENTED_EDGE('',*,*,#295,.T.);
#210=ORIENTED_EDGE('',*,*,#296,.T.);
#211=ORIENTED_EDGE('',*,*,#297,.T.);
#212=ORIENTED_EDGE('',*,*,#298,.T.);
#213=ORIENTED_EDGE('',*,*,#299,.F.);
#214=ORIENTED_EDGE('',*,*,#295,.F.);
#215=ORIENTED_EDGE('',*,*,#300,.F.);
#216=ORIENTED_EDGE('',*,*,#301,.T.);
#217=ORIENTED_EDGE('',*,*,#302,.T.);
#218=ORIENTED_EDGE('',*,*,#303,.T.);
#219=ORIENTED_EDGE('',*,*,#304,.F.);
#220=ORIENTED_EDGE('',*,*,#301,.F.);
#221=ORIENTED_EDGE('',*,*,#305,.F.);
#222=ORIENTED_EDGE('',*,*,#302,.F.);
#223=ORIENTED_EDGE('',*,*,#300,.T.);
#224=ORIENTED_EDGE('',*,*,#294,.T.);
#225=ORIENTED_EDGE('',*,*,#291,.T.);
#226=ORIENTED_EDGE('',*,*,#288,.T.);
#227=ORIENTED_EDGE('',*,*,#303,.F.);
#228=ORIENTED_EDGE('',*,*,#305,.T.);
#229=ORIENTED_EDGE('',*,*,#287,.T.);
#230=ORIENTED_EDGE('',*,*,#306,.T.);
#231=ORIENTED_EDGE('',*,*,#307,.F.);
#232=ORIENTED_EDGE('',*,*,#307,.T.);
#233=ORIENTED_EDGE('',*,*,#308,.T.);
#234=ORIENTED_EDGE('',*,*,#296,.F.);
#235=ORIENTED_EDGE('',*,*,#304,.T.);
#236=ORIENTED_EDGE('',*,*,#299,.T.);
#237=ORIENTED_EDGE('',*,*,#309,.T.);
#238=ORIENTED_EDGE('',*,*,#285,.T.);
#239=ORIENTED_EDGE('',*,*,#290,.T.);
#240=ORIENTED_EDGE('',*,*,#293,.T.);
#241=ORIENTED_EDGE('',*,*,#310,.F.);
#242=ORIENTED_EDGE('',*,*,#297,.F.);
#243=ORIENTED_EDGE('',*,*,#308,.F.);
#244=ORIENTED_EDGE('',*,*,#306,.F.);
#245=ORIENTED_EDGE('',*,*,#298,.F.);
#246=ORIENTED_EDGE('',*,*,#310,.T.);
#247=ORIENTED_EDGE('',*,*,#286,.F.);
#248=ORIENTED_EDGE('',*,*,#309,.F.);
#249=ORIENTED_EDGE('',*,*,#311,.F.);
#250=ORIENTED_EDGE('',*,*,#312,.T.);
#251=ORIENTED_EDGE('',*,*,#313,.T.);
#252=ORIENTED_EDGE('',*,*,#313,.F.);
#253=ORIENTED_EDGE('',*,*,#311,.T.);
#254=ORIENTED_EDGE('',*,*,#312,.F.);
#255=VERTEX_POINT('',#494);
#256=VERTEX_POINT('',#496);
#257=VERTEX_POINT('',#499);
#258=VERTEX_POINT('',#501);
#259=VERTEX_POINT('',#504);
#260=VERTEX_POINT('',#510);
#261=VERTEX_POINT('',#511);
#262=VERTEX_POINT('',#513);
#263=VERTEX_POINT('',#515);
#264=VERTEX_POINT('',#517);
#265=VERTEX_POINT('',#521);
#266=VERTEX_POINT('',#523);
#267=VERTEX_POINT('',#527);
#268=VERTEX_POINT('',#529);
#269=VERTEX_POINT('',#533);
#270=VERTEX_POINT('',#534);
#271=VERTEX_POINT('',#551);
#272=VERTEX_POINT('',#568);
#273=VERTEX_POINT('',#571);
#274=VERTEX_POINT('',#575);
#275=VERTEX_POINT('',#577);
#276=VERTEX_POINT('',#583);
#277=VERTEX_POINT('',#594);
#278=VERTEX_POINT('',#596);
#279=VERTEX_POINT('',#599);
#280=EDGE_CURVE('',#255,#255,#314,.T.);
#281=EDGE_CURVE('',#256,#256,#315,.T.);
#282=EDGE_CURVE('',#257,#257,#316,.T.);
#283=EDGE_CURVE('',#258,#258,#317,.T.);
#284=EDGE_CURVE('',#259,#259,#318,.T.);
#285=EDGE_CURVE('',#260,#261,#36,.T.);
#286=EDGE_CURVE('',#260,#262,#35,.T.);
#287=EDGE_CURVE('',#263,#262,#37,.T.);
#288=EDGE_CURVE('',#264,#263,#38,.T.);
#289=EDGE_CURVE('',#264,#261,#39,.T.);
#290=EDGE_CURVE('',#261,#265,#40,.T.);
#291=EDGE_CURVE('',#266,#264,#41,.T.);
#292=EDGE_CURVE('',#266,#265,#42,.T.);
#293=EDGE_CURVE('',#265,#267,#43,.T.);
#294=EDGE_CURVE('',#268,#266,#44,.T.);
#295=EDGE_CURVE('',#268,#267,#45,.T.);
#296=EDGE_CURVE('',#269,#270,#319,.T.);
#297=EDGE_CURVE('',#270,#271,#33,.T.);
#298=EDGE_CURVE('',#271,#272,#34,.T.);
#299=EDGE_CURVE('',#267,#272,#320,.T.);
#300=EDGE_CURVE('',#273,#268,#321,.T.);
#301=EDGE_CURVE('',#273,#269,#46,.T.);
#302=EDGE_CURVE('',#273,#274,#322,.T.);
#303=EDGE_CURVE('',#274,#275,#47,.T.);
#304=EDGE_CURVE('',#269,#275,#323,.T.);
#305=EDGE_CURVE('',#274,#263,#48,.T.);
#306=EDGE_CURVE('',#262,#276,#324,.T.);
#307=EDGE_CURVE('',#275,#276,#49,.T.);
#308=EDGE_CURVE('',#276,#270,#50,.T.);
#309=EDGE_CURVE('',#272,#260,#51,.T.);
#310=EDGE_CURVE('',#271,#262,#52,.T.);
#311=EDGE_CURVE('',#277,#277,#325,.T.);
#312=EDGE_CURVE('',#278,#278,#326,.T.);
#313=EDGE_CURVE('',#279,#279,#327,.T.);
#314=CIRCLE('',#356,7.92750000000003);
#315=CIRCLE('',#357,7.92750000000003);
#316=CIRCLE('',#359,3.);
#317=CIRCLE('',#360,3.);
#318=CIRCLE('',#362,7.42750000000002);
#319=CIRCLE('',#371,0.5);
#320=CIRCLE('',#372,0.5);
#321=CIRCLE('',#373,0.5);
#322=CIRCLE('',#375,3.);
#323=CIRCLE('',#376,3.);
#324=CIRCLE('',#379,0.1);
#325=CIRCLE('',#385,7.92750000000003);
#326=CIRCLE('',#386,7.92750000000003);
#327=CIRCLE('',#388,7.42750000000003);
#328=PRESENTATION_LAYER_ASSIGNMENT('1','Layer 1',(#353,#354,#355,#87));
#329=PRESENTATION_LAYER_ASSIGNMENT('2','Layer 2',(#85));
#330=PRESENTATION_LAYER_ASSIGNMENT('3','Layer 3',(#86));
#331=STYLED_ITEM('',(#337),#353);
#332=STYLED_ITEM('',(#338),#354);
#333=STYLED_ITEM('',(#339),#355);
#334=STYLED_ITEM('',(#340),#85);
#335=STYLED_ITEM('',(#341),#86);
#336=STYLED_ITEM('',(#342),#87);
#337=PRESENTATION_STYLE_ASSIGNMENT((#343));
#338=PRESENTATION_STYLE_ASSIGNMENT((#344));
#339=PRESENTATION_STYLE_ASSIGNMENT((#345));
#340=PRESENTATION_STYLE_ASSIGNMENT((#70));
#341=PRESENTATION_STYLE_ASSIGNMENT((#71));
#342=PRESENTATION_STYLE_ASSIGNMENT((#72));
#343=CURVE_STYLE('',#349,POSITIVE_LENGTH_MEASURE(0.18),#346);
#344=CURVE_STYLE('',#350,POSITIVE_LENGTH_MEASURE(0.18),#346);
#345=CURVE_STYLE('',#351,POSITIVE_LENGTH_MEASURE(0.18),#346);
#346=COLOUR_RGB('Strong Stone',0.576470588235294,0.54508278019379,0.392156862745098);
#347=COLOUR_RGB('Medium Gray',0.490196078431373,0.490196078431373,0.490196078431373);
#348=COLOUR_RGB('Light Gray',0.8,0.8,0.8);
#349=DRAUGHTING_PRE_DEFINED_CURVE_FONT('continuous');
#350=DRAUGHTING_PRE_DEFINED_CURVE_FONT('continuous');
#351=DRAUGHTING_PRE_DEFINED_CURVE_FONT('continuous');
#352=AXIS2_PLACEMENT_3D('',#489,#392,#393);
#353=AXIS2_PLACEMENT_3D('MCS',#490,#394,#395);
#354=AXIS2_PLACEMENT_3D('PCS',#491,#396,#397);
#355=AXIS2_PLACEMENT_3D('CSW',#492,#398,#399);
#356=AXIS2_PLACEMENT_3D('',#493,#400,#401);
#357=AXIS2_PLACEMENT_3D('',#495,#402,#403);
#358=AXIS2_PLACEMENT_3D('',#497,#404,#405);
#359=AXIS2_PLACEMENT_3D('',#498,#406,#407);
#360=AXIS2_PLACEMENT_3D('',#500,#408,#409);
#361=AXIS2_PLACEMENT_3D('',#502,#410,#411);
#362=AXIS2_PLACEMENT_3D('',#503,#412,#413);
#363=AXIS2_PLACEMENT_3D('',#505,#414,#415);
#364=AXIS2_PLACEMENT_3D('',#506,#416,#417);
#365=AXIS2_PLACEMENT_3D('',#507,#418,#419);
#366=AXIS2_PLACEMENT_3D('',#508,#420,#421);
#367=AXIS2_PLACEMENT_3D('',#512,#423,#424);
#368=AXIS2_PLACEMENT_3D('',#519,#428,#429);
#369=AXIS2_PLACEMENT_3D('',#525,#433,#434);
#370=AXIS2_PLACEMENT_3D('',#531,#438,#439);
#371=AXIS2_PLACEMENT_3D('',#532,#440,#441);
#372=AXIS2_PLACEMENT_3D('',#569,#442,#443);
#373=AXIS2_PLACEMENT_3D('',#570,#444,#445);
#374=AXIS2_PLACEMENT_3D('',#573,#447,#448);
#375=AXIS2_PLACEMENT_3D('',#574,#449,#450);
#376=AXIS2_PLACEMENT_3D('',#578,#452,#453);
#377=AXIS2_PLACEMENT_3D('',#579,#454,#455);
#378=AXIS2_PLACEMENT_3D('',#581,#457,#458);
#379=AXIS2_PLACEMENT_3D('',#582,#459,#460);
#380=AXIS2_PLACEMENT_3D('',#585,#462,#463);
#381=AXIS2_PLACEMENT_3D('',#587,#465,#466);
#382=AXIS2_PLACEMENT_3D('',#589,#468,#469);
#383=AXIS2_PLACEMENT_3D('',#591,#471,#472);
#384=AXIS2_PLACEMENT_3D('',#592,#473,#474);
#385=AXIS2_PLACEMENT_3D('',#593,#475,#476);
#386=AXIS2_PLACEMENT_3D('',#595,#477,#478);
#387=AXIS2_PLACEMENT_3D('',#597,#479,#480);
#388=AXIS2_PLACEMENT_3D('',#598,#481,#482);
#389=AXIS2_PLACEMENT_3D('',#600,#483,#484);
#390=AXIS2_PLACEMENT_3D('',#601,#485,#486);
#391=AXIS2_PLACEMENT_3D('',#602,#487,#488);
#392=DIRECTION('',(0.,0.,1.));
#393=DIRECTION('',(1.,0.,0.));
#394=DIRECTION('',(0.,0.,1.));
#395=DIRECTION('',(1.,0.,0.));
#396=DIRECTION('',(0.,0.,1.));
#397=DIRECTION('',(1.,0.,0.));
#398=DIRECTION('',(0.,0.,1.));
#399=DIRECTION('',(1.,0.,0.));
#400=DIRECTION('',(9.80993426469323E-17,0.,1.));
#401=DIRECTION('',(1.,0.,0.));
#402=DIRECTION('',(0.,0.,-1.));
#403=DIRECTION('',(-1.,0.,0.));
#404=DIRECTION('',(9.80993426469323E-17,0.,1.));
#405=DIRECTION('',(-1.,0.,0.));
#406=DIRECTION('',(0.,0.,1.));
#407=DIRECTION('',(0.,-1.,0.));
#408=DIRECTION('',(9.80993426469323E-17,0.,1.));
#409=DIRECTION('',(1.,0.,0.));
#410=DIRECTION('',(9.80993426469323E-17,0.,1.));
#411=DIRECTION('',(-1.,0.,0.));
#412=DIRECTION('',(9.80993426469323E-17,0.,1.));
#413=DIRECTION('',(1.,0.,0.));
#414=DIRECTION('',(9.80993426469323E-17,0.,1.));
#415=DIRECTION('',(-1.,0.,1.51530175507375E-16));
#416=DIRECTION('',(9.80993426469323E-17,0.,1.));
#417=DIRECTION('',(-1.,0.,0.));
#418=DIRECTION('',(0.,0.,-1.));
#419=DIRECTION('',(1.,0.,0.));
#420=DIRECTION('',(0.,0.,-1.));
#421=DIRECTION('',(-1.,0.,0.));
#422=DIRECTION('',(-0.707106781186547,0.707106781186548,0.));
#423=DIRECTION('',(-0.707106781186548,-0.707106781186547,0.));
#424=DIRECTION('',(-0.707106781186547,0.707106781186548,0.));
#425=DIRECTION('',(0.,0.,-1.));
#426=DIRECTION('',(0.707106781186547,-0.707106781186548,0.));
#427=DIRECTION('',(0.,0.,-1.));
#428=DIRECTION('',(0.707106781186548,0.707106781186547,0.));
#429=DIRECTION('',(-0.707106781186547,0.707106781186548,0.));
#430=DIRECTION('',(0.,1.,0.));
#431=DIRECTION('',(0.,-1.,0.));
#432=DIRECTION('',(0.,0.,-1.));
#433=DIRECTION('',(1.,0.,0.));
#434=DIRECTION('',(0.,0.,1.));
#435=DIRECTION('',(1.,0.,0.));
#436=DIRECTION('',(-1.,0.,0.));
#437=DIRECTION('',(0.,0.,-1.));
#438=DIRECTION('',(0.,-1.,0.));
#439=DIRECTION('',(0.,0.,-1.));
#440=DIRECTION('',(0.,0.,-1.));
#441=DIRECTION('',(1.,0.,0.));
#442=DIRECTION('',(0.,0.,1.));
#443=DIRECTION('',(-0.999999999999999,0.,0.));
#444=DIRECTION('',(0.,0.,-1.));
#445=DIRECTION('',(0.,-1.,0.));
#446=DIRECTION('',(0.,0.,-1.));
#447=DIRECTION('',(0.,0.,-1.));
#448=DIRECTION('',(1.,0.,0.));
#449=DIRECTION('',(0.,0.,-1.));
#450=DIRECTION('',(0.,-1.,0.));
#451=DIRECTION('',(0.,0.,-1.));
#452=DIRECTION('',(0.,0.,-1.));
#453=DIRECTION('',(1.,0.,0.));
#454=DIRECTION('',(0.,0.,-1.));
#455=DIRECTION('',(1.,0.,0.));
#456=DIRECTION('',(-1.,0.,0.));
#457=DIRECTION('',(0.,0.,-1.));
#458=DIRECTION('',(1.,0.,0.));
#459=DIRECTION('',(0.,1.,0.));
#460=DIRECTION('',(0.,0.,1.00000000000003));
#461=DIRECTION('',(-1.,0.,0.));
#462=DIRECTION('',(0.,-1.,0.));
#463=DIRECTION('',(0.,0.,-1.));
#464=DIRECTION('',(0.,1.,0.));
#465=DIRECTION('',(0.,0.,1.));
#466=DIRECTION('',(-1.,0.,0.));
#467=DIRECTION('',(0.,-1.,0.));
#468=DIRECTION('',(0.,0.,-1.));
#469=DIRECTION('',(1.,0.,0.));
#470=DIRECTION('',(0.,-1.,0.));
#471=DIRECTION('',(0.,1.,0.));
#472=DIRECTION('',(0.,0.,1.00000000000003));
#473=DIRECTION('',(0.,1.,0.));
#474=DIRECTION('',(0.,0.,1.00000000000003));
#475=DIRECTION('',(9.80993426469323E-17,0.,1.));
#476=DIRECTION('',(1.,0.,0.));
#477=DIRECTION('',(0.,0.,1.));
#478=DIRECTION('',(-1.,0.,0.));
#479=DIRECTION('',(9.80993426469323E-17,0.,1.));
#480=DIRECTION('',(-1.,0.,0.));
#481=DIRECTION('',(9.80993426469323E-17,0.,1.));
#482=DIRECTION('',(1.,0.,0.));
#483=DIRECTION('',(-9.80993426469323E-17,0.,-1.));
#484=DIRECTION('',(1.,0.,-9.71445146547012E-17));
#485=DIRECTION('',(-9.80993426469323E-17,0.,-1.));
#486=DIRECTION('',(1.,0.,-1.23917732446362E-16));
#487=DIRECTION('',(0.,0.,-1.));
#488=DIRECTION('',(-1.,0.,0.));
#489=CARTESIAN_POINT('',(0.,0.,0.));
#490=CARTESIAN_POINT('',(-1.81708530869788E-15,0.,0.));
#491=CARTESIAN_POINT('',(4.70876844705275E-15,0.,48.));
#492=CARTESIAN_POINT('',(3.36461842632288E-13,-4.03983566073796E-13,-42.8006628354878));
#493=CARTESIAN_POINT('',(-1.81708530869788E-15,0.,-18.5229101405676));
#494=CARTESIAN_POINT('',(7.92750000000003,0.,-18.5229101405676));
#495=CARTESIAN_POINT('',(0.,0.,0.));
#496=CARTESIAN_POINT('',(-7.92750000000003,0.,0.));
#497=CARTESIAN_POINT('',(-3.92102346624653E-15,0.,-39.969926));
#498=CARTESIAN_POINT('',(-3.83084435408835E-15,0.,-39.0506628354878));
#499=CARTESIAN_POINT('',(-3.83084435408835E-15,-3.,-39.0506628354878));
#500=CARTESIAN_POINT('',(-2.25628488087944E-15,0.,-23.));
#501=CARTESIAN_POINT('',(3.,0.,-23.));
#502=CARTESIAN_POINT('',(-3.92102346624653E-15,0.,-39.969926));
#503=CARTESIAN_POINT('',(-1.86613498002134E-15,0.,-19.0229101405676));
#504=CARTESIAN_POINT('',(7.42750000000002,0.,-19.0229101405676));
#505=CARTESIAN_POINT('',(-1.86613498002134E-15,0.,-19.0229101405676));
#506=CARTESIAN_POINT('',(-2.00527303935325E-15,0.,-23.));
#507=CARTESIAN_POINT('',(-3.46410161513742,0.499999999999596,-39.0506628354878));
#508=CARTESIAN_POINT('',(6.20302071148002E-16,0.,0.));
#509=CARTESIAN_POINT('',(-4.77999999999966,-1.5000000000004,-43.0006628354878));
#510=CARTESIAN_POINT('',(-3.37999999999966,-2.90000000000041,-43.0006628354878));
#511=CARTESIAN_POINT('',(-4.77999999999966,-1.5000000000004,-43.0006628354878));
#512=CARTESIAN_POINT('',(-3.37999999999966,-2.90000000000041,-42.9006628354878));
#513=CARTESIAN_POINT('',(-3.27999999999966,-3.0000000000004,-42.9006628354878));
#514=CARTESIAN_POINT('',(-3.27999999999966,-3.0000000000004,-39.0506628354878));
#515=CARTESIAN_POINT('',(-3.27999999999966,-3.0000000000004,-39.0506628354878));
#516=CARTESIAN_POINT('',(-5.12205080756854,-1.15794919243153,-39.0506628354878));
#517=CARTESIAN_POINT('',(-4.77999999999966,-1.5000000000004,-39.0506628354878));
#518=CARTESIAN_POINT('',(-4.77999999999966,-1.5000000000004,-39.0506628354878));
#519=CARTESIAN_POINT('',(-4.77999999999966,-1.5000000000004,-39.0506628354878));
#520=CARTESIAN_POINT('',(-4.77999999999966,-4.03983566073796E-13,-43.0006628354878));
#521=CARTESIAN_POINT('',(-4.77999999999966,-4.03983566073796E-13,-43.0006628354878));
#522=CARTESIAN_POINT('',(-4.77999999999966,0.499999999999596,-39.0506628354878));
#523=CARTESIAN_POINT('',(-4.77999999999966,-4.03983566073796E-13,-39.0506628354878));
#524=CARTESIAN_POINT('',(-4.77999999999966,-4.03983566073796E-13,-39.0506628354878));
#525=CARTESIAN_POINT('',(-4.77999999999966,-4.03983566073796E-13,-39.0506628354878));
#526=CARTESIAN_POINT('',(-3.46410161513742,-4.03983566073796E-13,-43.0006628354878));
#527=CARTESIAN_POINT('',(-3.46410161513742,-4.03594988015177E-13,-43.0006628354878));
#528=CARTESIAN_POINT('',(-3.46410161513742,-4.03973729468099E-13,-39.0506628354878));
#529=CARTESIAN_POINT('',(-3.46410161513742,-4.03594988015177E-13,-39.0506628354878));
#530=CARTESIAN_POINT('',(-3.46410161513742,-4.03594988015177E-13,-39.0506628354878));
#531=CARTESIAN_POINT('',(-3.46410161513742,-4.03983566073796E-13,-39.0506628354878));
#532=CARTESIAN_POINT('',(-3.46410161513742,0.499999999999596,-42.8006628354878));
#533=CARTESIAN_POINT('',(-2.96922995583202,0.428571428571025,-42.8006628354878));
#534=CARTESIAN_POINT('',(-3.17999999999966,0.0885558697994963,-42.8006628354878));
#535=CARTESIAN_POINT('',(-3.17999999999966,0.0885558697994963,-42.8006628354878));
#536=CARTESIAN_POINT('',(-3.1917325091894,0.0804545880803946,-42.8006628354878));
#537=CARTESIAN_POINT('',(-3.20401491594245,0.0727553705213542,-42.8027781854844));
#538=CARTESIAN_POINT('',(-3.21575812133052,0.0660351292049895,-42.8072746308852));
#539=CARTESIAN_POINT('',(-3.22756841140704,0.0592764975786401,-42.8117967628537));
#540=CARTESIAN_POINT('',(-3.23920087885729,0.0533035087099034,-42.81893760526));
#541=CARTESIAN_POINT('',(-3.24901118427923,0.0486286378672172,-42.8282925622789));
#542=CARTESIAN_POINT('',(-3.25743421285393,0.0446148412525997,-42.8363246333405));
#543=CARTESIAN_POINT('',(-3.2647702649672,0.0414155514312056,-42.846250972643));
#544=CARTESIAN_POINT('',(-3.27003905336584,0.0391966556989615,-42.8571545734112));
#545=CARTESIAN_POINT('',(-3.27475265987013,0.0372115690785612,-42.8669092417738));
#546=CARTESIAN_POINT('',(-3.27795502890663,0.0359402297610587,-42.8777314542934));
#547=CARTESIAN_POINT('',(-3.27927625592587,0.0354146078569646,-42.888653463761));
#548=CARTESIAN_POINT('',(-3.27975746655337,0.0352231685035364,-42.8926314228496));
#549=CARTESIAN_POINT('',(-3.27999999999967,0.0351273343117173,-42.8966513057041));
#550=CARTESIAN_POINT('',(-3.27999999999967,0.0351273343117172,-42.9006628354878));
#551=CARTESIAN_POINT('',(-3.27999999999966,0.0351273343118099,-42.9006628354878));
#552=CARTESIAN_POINT('',(-3.27999999999966,0.0351273343118099,-42.9006628354878));
#553=CARTESIAN_POINT('',(-3.27999999999966,0.0351273343118099,-42.9113607035629));
#554=CARTESIAN_POINT('',(-3.28177215898471,0.0344155269615717,-42.9222053220022));
#555=CARTESIAN_POINT('',(-3.28513001683906,0.0331283184825744,-42.9322806515906));
#556=CARTESIAN_POINT('',(-3.28848298163395,0.0318429857195587,-42.9423412994416));
#557=CARTESIAN_POINT('',(-3.29349384409739,0.0299610486933724,-42.9519081405587));
#558=CARTESIAN_POINT('',(-3.29973183228963,0.027789692523604,-42.9603036038638));
#559=CARTESIAN_POINT('',(-3.30621178959613,0.0255341103000273,-42.9690247238962));
#560=CARTESIAN_POINT('',(-3.31417975406721,0.0229163252008235,-42.9767156731807));
#561=CARTESIAN_POINT('',(-3.32304545480235,0.020309308374746,-42.9828588194613));
#562=CARTESIAN_POINT('',(-3.33239800973853,0.0175591289119097,-42.9893393126323));
#563=CARTESIAN_POINT('',(-3.34301070159856,0.0147524174462808,-42.9942716554509));
#564=CARTESIAN_POINT('',(-3.35405672006445,0.0122601912199787,-42.9972389517185));
#565=CARTESIAN_POINT('',(-3.36244473376062,0.0103676696942585,-42.9994922271236));
#566=CARTESIAN_POINT('',(-3.37123746223379,0.00861902074969068,-43.0006628354969));
#567=CARTESIAN_POINT('',(-3.37999999999691,0.00712383063013104,-43.0006628354971));
#568=CARTESIAN_POINT('',(-3.37999999999966,0.00712383063124427,-43.0006628354878));
#569=CARTESIAN_POINT('',(-3.46410161513742,0.499999999999596,-43.0006628354878));
#570=CARTESIAN_POINT('',(-3.46410161513742,0.499999999999596,-39.0506628354878));
#571=CARTESIAN_POINT('',(-2.96922995583202,0.428571428571025,-39.0506628354878));
#572=CARTESIAN_POINT('',(-2.96922995583202,0.428571428571025,-39.0506628354878));
#573=CARTESIAN_POINT('',(-3.46410161513742,0.499999999999596,-39.0506628354878));
#574=CARTESIAN_POINT('',(3.36461842632288E-13,-4.03983566073796E-13,-39.0506628354878));
#575=CARTESIAN_POINT('',(3.37012915491509E-13,-3.0000000000004,-39.0506628354878));
#576=CARTESIAN_POINT('',(3.37012915491509E-13,-3.0000000000004,-39.0506628354878));
#577=CARTESIAN_POINT('',(3.36461842632288E-13,-3.0000000000004,-42.8006628354878));
#578=CARTESIAN_POINT('',(3.36461842632288E-13,-4.03983566073796E-13,-42.8006628354878));
#579=CARTESIAN_POINT('',(3.36461842632288E-13,-4.03983566073796E-13,-39.0506628354878));
#580=CARTESIAN_POINT('',(-3.46410161513742,-3.0000000000004,-39.0506628354878));
#581=CARTESIAN_POINT('',(-3.46410161513742,0.499999999999596,-39.0506628354878));
#582=CARTESIAN_POINT('',(-3.17999999999966,-3.0000000000004,-42.9006628354878));
#583=CARTESIAN_POINT('',(-3.17999999999966,-3.0000000000004,-42.8006628354878));
#584=CARTESIAN_POINT('',(4.22000000000034,-3.0000000000004,-42.8006628354878));
#585=CARTESIAN_POINT('',(3.36461842632288E-13,-3.0000000000004,-39.0506628354878));
#586=CARTESIAN_POINT('',(-3.17999999999966,0.0351273343118083,-42.8006628354878));
#587=CARTESIAN_POINT('',(4.22000000000034,2.9999999999996,-42.8006628354878));
#588=CARTESIAN_POINT('',(-3.37999999999966,-3.0000000000004,-43.0006628354878));
#589=CARTESIAN_POINT('',(-0.139999999999663,-4.03983566073796E-13,-43.0006628354878));
#590=CARTESIAN_POINT('',(-3.27999999999966,-3.0000000000004,-42.9006628354878));
#591=CARTESIAN_POINT('',(-3.17999999999966,2.9999999999996,-42.9006628354878));
#592=CARTESIAN_POINT('',(-3.37999999999966,-4.03983566073796E-13,-42.9006628354878));
#593=CARTESIAN_POINT('',(4.65971877572928E-15,0.,47.5));
#594=CARTESIAN_POINT('',(7.92750000000003,0.,47.5));
#595=CARTESIAN_POINT('',(0.,0.,0.));
#596=CARTESIAN_POINT('',(-7.92750000000003,0.,0.));
#597=CARTESIAN_POINT('',(-3.92102346624653E-15,0.,-39.969926));
#598=CARTESIAN_POINT('',(4.70876844705275E-15,0.,48.));
#599=CARTESIAN_POINT('',(7.42750000000003,0.,48.));
#600=CARTESIAN_POINT('',(7.42750000000003,0.,48.));
#601=CARTESIAN_POINT('',(4.65971877572928E-15,0.,47.5));
#602=CARTESIAN_POINT('',(6.20302071148002E-16,0.,0.));
#603=MECHANICAL_DESIGN_GEOMETRIC_PRESENTATION_REPRESENTATION('',(#331,#332,
#333,#334,#335,#336),#604);
#604=(
GEOMETRIC_REPRESENTATION_CONTEXT(3)
GLOBAL_UNCERTAINTY_ASSIGNED_CONTEXT((#605))
GLOBAL_UNIT_ASSIGNED_CONTEXT((#611,#607,#606))
REPRESENTATION_CONTEXT('A10G-SGXN08-078-R','TOP_LEVEL_ASSEMBLY_PART')
);
#605=UNCERTAINTY_MEASURE_WITH_UNIT(LENGTH_MEASURE(0.0508),#611,
'DISTANCE_ACCURACY_VALUE','Maximum Tolerance applied to model');
#606=(
NAMED_UNIT(*)
SI_UNIT($,.STERADIAN.)
SOLID_ANGLE_UNIT()
);
#607=(
CONVERSION_BASED_UNIT('DEGREE',#609)
NAMED_UNIT(#608)
PLANE_ANGLE_UNIT()
);
#608=DIMENSIONAL_EXPONENTS(0.,0.,0.,0.,0.,0.,0.);
#609=PLANE_ANGLE_MEASURE_WITH_UNIT(PLANE_ANGLE_MEASURE(0.0174532925),#610);
#610=(
NAMED_UNIT(*)
PLANE_ANGLE_UNIT()
SI_UNIT($,.RADIAN.)
);
#611=(
LENGTH_UNIT()
NAMED_UNIT(*)
SI_UNIT(.MILLI.,.METRE.)
);
ENDSEC;
END-ISO-10303-21;
