ISO-10303-21;
HEADER;
/* Generated by software containing ST-Developer
 * from STEP Tools, Inc. (www.steptools.com) 
 */
/* OPTION: using custom schema-name function */

FILE_DESCRIPTION(
/* description */ (''),
/* implementation_level */ '2;1');

FILE_NAME(
/* name */ 'SD400-14.90-M.stp',
/* time_stamp */ '2012-07-09T10:03:12+06:00',
/* author */ (''),
/* organization */ (''),
/* preprocessor_version */ 'ST-DEVELOPER v11',
/* originating_system */ 'SIEMENS PLM Software NX 7.5',
/* authorisation */ '');

FILE_SCHEMA (('AUTOMOTIVE_DESIGN { 1 0 10303 214 1 1 1 1 }'));
ENDSEC;

DATA;
#10=SHAPE_REPRESENTATION_RELATIONSHIP('None',
'relationship between inpu3DE4vgvw-None and inpu3DE4vgvw-None',#22,#11);
#11=ADVANCED_BREP_SHAPE_REPRESENTATION('inpu3DE4vgvw-None',(#42,#43),#286);
#12=SHAPE_DEFINITION_REPRESENTATION(#13,#22);
#13=PRODUCT_DEFINITION_SHAPE('','',#14);
#14=PRODUCT_DEFINITION(' ','',#16,#15);
#15=PRODUCT_DEFINITION_CONTEXT('part definition',#21,'design');
#16=PRODUCT_DEFINITION_FORMATION_WITH_SPECIFIED_SOURCE(' ',' ',#18,.NOT_KNOWN.);
#17=PRODUCT_RELATED_PRODUCT_CATEGORY('part','',(#18));
#18=PRODUCT('inpu3DE4vgvw','inpu3DE4vgvw',' ',(#19));
#19=PRODUCT_CONTEXT(' ',#21,'mechanical');
#20=APPLICATION_PROTOCOL_DEFINITION('international standard',
'automotive_design',2001,#21);
#21=APPLICATION_CONTEXT(
'core data for automotive mechanical design processes');
#22=SHAPE_REPRESENTATION('inpu3DE4vgvw-None',(#173),#286);
#23=VERTEX_LOOP('',#148);
#24=PRESENTATION_LAYER_ASSIGNMENT('1','Layer 1',(#42));
#25=PRESENTATION_LAYER_ASSIGNMENT('3','Layer 3',(#43));
#26=STYLED_ITEM('',(#28),#42);
#27=STYLED_ITEM('',(#29),#43);
#28=PRESENTATION_STYLE_ASSIGNMENT((#30));
#29=PRESENTATION_STYLE_ASSIGNMENT((#31));
#30=SURFACE_STYLE_USAGE(.BOTH.,#32);
#31=SURFACE_STYLE_USAGE(.BOTH.,#33);
#32=SURFACE_SIDE_STYLE('',(#34));
#33=SURFACE_SIDE_STYLE('',(#35));
#34=SURFACE_STYLE_FILL_AREA(#36);
#35=SURFACE_STYLE_FILL_AREA(#37);
#36=FILL_AREA_STYLE('',(#38));
#37=FILL_AREA_STYLE('',(#39));
#38=FILL_AREA_STYLE_COLOUR('',#40);
#39=FILL_AREA_STYLE_COLOUR('',#41);
#40=COLOUR_RGB('Medium Gray',0.490196078431373,0.490196078431373,0.490196078431373);
#41=COLOUR_RGB('Light Gray',0.8,0.8,0.8);
#42=MANIFOLD_SOLID_BREP('',#44);
#43=MANIFOLD_SOLID_BREP('',#45);
#44=CLOSED_SHELL('',(#75,#76,#77,#78,#79,#80,#81,#82,#83));
#45=CLOSED_SHELL('',(#84,#85,#86,#87));
#46=CONICAL_SURFACE('',#187,3.6,40.0000000000003);
#47=CONICAL_SURFACE('',#194,7.3720710888163,70.);
#48=CONICAL_SURFACE('',#196,7.45,33.0000000000001);
#49=TOROIDAL_SURFACE('',#179,1.4,0.2);
#50=TOROIDAL_SURFACE('',#183,2.6,1.);
#51=TOROIDAL_SURFACE('',#189,3.55,0.2);
#52=CYLINDRICAL_SURFACE('',#177,1.2);
#53=CYLINDRICAL_SURFACE('',#185,3.6);
#54=CYLINDRICAL_SURFACE('',#197,7.45);
#55=FACE_BOUND('',#96,.T.);
#56=FACE_BOUND('',#97,.T.);
#57=FACE_BOUND('',#98,.T.);
#58=FACE_BOUND('',#99,.T.);
#59=FACE_BOUND('',#100,.T.);
#60=FACE_BOUND('',#101,.T.);
#61=FACE_BOUND('',#102,.T.);
#62=FACE_BOUND('',#103,.T.);
#63=FACE_BOUND('',#104,.T.);
#64=FACE_BOUND('',#105,.T.);
#65=FACE_BOUND('',#106,.T.);
#66=FACE_BOUND('',#107,.T.);
#67=FACE_BOUND('',#108,.T.);
#68=FACE_BOUND('',#109,.T.);
#69=FACE_BOUND('',#23,.T.);
#70=FACE_BOUND('',#112,.T.);
#71=FACE_BOUND('',#113,.T.);
#72=FACE_BOUND('',#114,.T.);
#73=FACE_BOUND('',#115,.T.);
#74=FACE_BOUND('',#116,.T.);
#75=ADVANCED_FACE('',(#92),#88,.T.);
#76=ADVANCED_FACE('',(#55,#56),#52,.T.);
#77=ADVANCED_FACE('',(#57,#58),#49,.F.);
#78=ADVANCED_FACE('',(#59,#60),#89,.T.);
#79=ADVANCED_FACE('',(#61,#62),#50,.T.);
#80=ADVANCED_FACE('',(#63,#64),#53,.T.);
#81=ADVANCED_FACE('',(#65,#66),#46,.T.);
#82=ADVANCED_FACE('',(#67,#68),#51,.F.);
#83=ADVANCED_FACE('',(#93),#90,.F.);
#84=ADVANCED_FACE('',(#94),#91,.T.);
#85=ADVANCED_FACE('',(#69,#70),#47,.T.);
#86=ADVANCED_FACE('',(#71,#72),#48,.T.);
#87=ADVANCED_FACE('',(#73,#74),#54,.T.);
#88=PLANE('',#175);
#89=PLANE('',#181);
#90=PLANE('',#190);
#91=PLANE('',#192);
#92=FACE_OUTER_BOUND('',#95,.T.);
#93=FACE_OUTER_BOUND('',#110,.T.);
#94=FACE_OUTER_BOUND('',#111,.T.);
#95=EDGE_LOOP('',(#117));
#96=EDGE_LOOP('',(#118));
#97=EDGE_LOOP('',(#119));
#98=EDGE_LOOP('',(#120));
#99=EDGE_LOOP('',(#121));
#100=EDGE_LOOP('',(#122));
#101=EDGE_LOOP('',(#123));
#102=EDGE_LOOP('',(#124));
#103=EDGE_LOOP('',(#125));
#104=EDGE_LOOP('',(#126));
#105=EDGE_LOOP('',(#127));
#106=EDGE_LOOP('',(#128));
#107=EDGE_LOOP('',(#129));
#108=EDGE_LOOP('',(#130));
#109=EDGE_LOOP('',(#131));
#110=EDGE_LOOP('',(#132));
#111=EDGE_LOOP('',(#133));
#112=EDGE_LOOP('',(#134));
#113=EDGE_LOOP('',(#135));
#114=EDGE_LOOP('',(#136));
#115=EDGE_LOOP('',(#137));
#116=EDGE_LOOP('',(#138));
#117=ORIENTED_EDGE('',*,*,#151,.T.);
#118=ORIENTED_EDGE('',*,*,#152,.T.);
#119=ORIENTED_EDGE('',*,*,#151,.F.);
#120=ORIENTED_EDGE('',*,*,#153,.T.);
#121=ORIENTED_EDGE('',*,*,#152,.F.);
#122=ORIENTED_EDGE('',*,*,#154,.T.);
#123=ORIENTED_EDGE('',*,*,#153,.F.);
#124=ORIENTED_EDGE('',*,*,#155,.T.);
#125=ORIENTED_EDGE('',*,*,#154,.F.);
#126=ORIENTED_EDGE('',*,*,#156,.T.);
#127=ORIENTED_EDGE('',*,*,#155,.F.);
#128=ORIENTED_EDGE('',*,*,#157,.T.);
#129=ORIENTED_EDGE('',*,*,#156,.F.);
#130=ORIENTED_EDGE('',*,*,#158,.T.);
#131=ORIENTED_EDGE('',*,*,#157,.F.);
#132=ORIENTED_EDGE('',*,*,#158,.F.);
#133=ORIENTED_EDGE('',*,*,#159,.T.);
#134=ORIENTED_EDGE('',*,*,#160,.F.);
#135=ORIENTED_EDGE('',*,*,#160,.T.);
#136=ORIENTED_EDGE('',*,*,#161,.F.);
#137=ORIENTED_EDGE('',*,*,#161,.T.);
#138=ORIENTED_EDGE('',*,*,#159,.F.);
#139=VERTEX_POINT('',#250);
#140=VERTEX_POINT('',#253);
#141=VERTEX_POINT('',#256);
#142=VERTEX_POINT('',#259);
#143=VERTEX_POINT('',#262);
#144=VERTEX_POINT('',#265);
#145=VERTEX_POINT('',#268);
#146=VERTEX_POINT('',#271);
#147=VERTEX_POINT('',#275);
#148=VERTEX_POINT('',#277);
#149=VERTEX_POINT('',#279);
#150=VERTEX_POINT('',#282);
#151=EDGE_CURVE('',#139,#139,#162,.T.);
#152=EDGE_CURVE('',#140,#140,#163,.T.);
#153=EDGE_CURVE('',#141,#141,#164,.T.);
#154=EDGE_CURVE('',#142,#142,#165,.T.);
#155=EDGE_CURVE('',#143,#143,#166,.T.);
#156=EDGE_CURVE('',#144,#144,#167,.T.);
#157=EDGE_CURVE('',#145,#145,#168,.T.);
#158=EDGE_CURVE('',#146,#146,#169,.T.);
#159=EDGE_CURVE('',#147,#147,#170,.T.);
#160=EDGE_CURVE('',#149,#149,#171,.T.);
#161=EDGE_CURVE('',#150,#150,#172,.T.);
#162=CIRCLE('',#174,1.2);
#163=CIRCLE('',#176,1.2);
#164=CIRCLE('',#178,1.4);
#165=CIRCLE('',#180,2.6);
#166=CIRCLE('',#182,3.6);
#167=CIRCLE('',#184,3.6);
#168=CIRCLE('',#186,3.35);
#169=CIRCLE('',#188,3.55);
#170=CIRCLE('',#191,7.45);
#171=CIRCLE('',#193,7.3720710888163);
#172=CIRCLE('',#195,7.45);
#173=AXIS2_PLACEMENT_3D('',#248,#198,#199);
#174=AXIS2_PLACEMENT_3D('',#249,#200,#201);
#175=AXIS2_PLACEMENT_3D('',#251,#202,#203);
#176=AXIS2_PLACEMENT_3D('',#252,#204,#205);
#177=AXIS2_PLACEMENT_3D('',#254,#206,#207);
#178=AXIS2_PLACEMENT_3D('',#255,#208,#209);
#179=AXIS2_PLACEMENT_3D('',#257,#210,#211);
#180=AXIS2_PLACEMENT_3D('',#258,#212,#213);
#181=AXIS2_PLACEMENT_3D('',#260,#214,#215);
#182=AXIS2_PLACEMENT_3D('',#261,#216,#217);
#183=AXIS2_PLACEMENT_3D('',#263,#218,#219);
#184=AXIS2_PLACEMENT_3D('',#264,#220,#221);
#185=AXIS2_PLACEMENT_3D('',#266,#222,#223);
#186=AXIS2_PLACEMENT_3D('',#267,#224,#225);
#187=AXIS2_PLACEMENT_3D('',#269,#226,#227);
#188=AXIS2_PLACEMENT_3D('',#270,#228,#229);
#189=AXIS2_PLACEMENT_3D('',#272,#230,#231);
#190=AXIS2_PLACEMENT_3D('',#273,#232,#233);
#191=AXIS2_PLACEMENT_3D('',#274,#234,#235);
#192=AXIS2_PLACEMENT_3D('',#276,#236,#237);
#193=AXIS2_PLACEMENT_3D('',#278,#238,#239);
#194=AXIS2_PLACEMENT_3D('',#280,#240,#241);
#195=AXIS2_PLACEMENT_3D('',#281,#242,#243);
#196=AXIS2_PLACEMENT_3D('',#283,#244,#245);
#197=AXIS2_PLACEMENT_3D('',#284,#246,#247);
#198=DIRECTION('',(0.,0.,1.));
#199=DIRECTION('',(1.,0.,0.));
#200=DIRECTION('',(0.,1.06090337352303E-016,1.));
#201=DIRECTION('',(0.,-1.,0.));
#202=DIRECTION('',(0.,1.06090337352303E-016,1.));
#203=DIRECTION('',(0.,-1.,1.05818132034585E-016));
#204=DIRECTION('',(0.,1.06090337352303E-016,1.));
#205=DIRECTION('',(0.,-1.,0.));
#206=DIRECTION('',(0.,1.06090337352303E-016,1.));
#207=DIRECTION('',(0.,-1.,0.));
#208=DIRECTION('',(0.,1.06090337352303E-016,1.));
#209=DIRECTION('',(0.,-1.,0.));
#210=DIRECTION('',(0.,1.06090337352303E-016,1.));
#211=DIRECTION('',(0.,-1.,0.));
#212=DIRECTION('',(0.,1.06090337352303E-016,1.));
#213=DIRECTION('',(0.,-1.,1.66800334228539E-016));
#214=DIRECTION('',(0.,1.06090337352303E-016,1.));
#215=DIRECTION('',(0.,-1.,1.06251812903579E-016));
#216=DIRECTION('',(0.,1.06090337352303E-016,1.));
#217=DIRECTION('',(0.,-1.,1.20466908053945E-016));
#218=DIRECTION('',(0.,1.06090337352303E-016,1.));
#219=DIRECTION('',(0.,-1.,1.20466908053945E-016));
#220=DIRECTION('',(0.,1.06090337352303E-016,1.));
#221=DIRECTION('',(0.,-1.,1.20466908053945E-016));
#222=DIRECTION('',(0.,1.06090337352303E-016,1.));
#223=DIRECTION('',(0.,-1.,0.));
#224=DIRECTION('',(0.,1.06090337352303E-016,1.));
#225=DIRECTION('',(0.,-1.,1.05183792853071E-016));
#226=DIRECTION('',(0.,1.06090337352303E-016,1.));
#227=DIRECTION('',(0.,-1.,-7.20485917080162E-017));
#228=DIRECTION('',(0.,1.06090337352303E-016,1.));
#229=DIRECTION('',(0.,-1.,1.06090337352303E-016));
#230=DIRECTION('',(0.,1.06090337352303E-016,1.));
#231=DIRECTION('',(0.,-1.,1.08420217248551E-016));
#232=DIRECTION('',(0.,0.,1.));
#233=DIRECTION('',(1.,0.,0.));
#234=DIRECTION('',(0.,1.06090337352303E-016,1.));
#235=DIRECTION('',(0.,-1.,1.06090337352303E-016));
#236=DIRECTION('',(0.,0.,1.));
#237=DIRECTION('',(1.,0.,0.));
#238=DIRECTION('',(0.,1.06090337352303E-016,1.));
#239=DIRECTION('',(0.,-1.,1.17655096856597E-016));
#240=DIRECTION('',(0.,1.06090337352303E-016,1.));
#241=DIRECTION('',(0.,-1.,1.18068392796838E-016));
#242=DIRECTION('',(0.,1.06090337352303E-016,1.));
#243=DIRECTION('',(0.,-1.,1.1642439436086E-016));
#244=DIRECTION('',(0.,1.06090337352303E-016,1.));
#245=DIRECTION('',(0.,-1.,1.71661296308692E-016));
#246=DIRECTION('',(0.,1.06090337352303E-016,1.));
#247=DIRECTION('',(0.,-1.,0.));
#248=CARTESIAN_POINT('',(0.,0.,0.));
#249=CARTESIAN_POINT('',(0.,4.87128024549699E-015,4.82));
#250=CARTESIAN_POINT('',(0.,-1.19999999999999,4.82));
#251=CARTESIAN_POINT('',(0.,2.44249065417534E-015,4.82));
#252=CARTESIAN_POINT('',(0.,4.63788150332192E-015,2.62));
#253=CARTESIAN_POINT('',(0.,-1.19999999999999,2.62));
#254=CARTESIAN_POINT('',(0.,3.33262933273479E-015,-9.68321444122357));
#255=CARTESIAN_POINT('',(0.,4.61666343585146E-015,2.42));
#256=CARTESIAN_POINT('',(0.,-1.39999999999999,2.42));
#257=CARTESIAN_POINT('',(0.,4.55364912443912E-015,2.62));
#258=CARTESIAN_POINT('',(0.,4.61666343585146E-015,2.42));
#259=CARTESIAN_POINT('',(0.,-2.59999999999999,2.42));
#260=CARTESIAN_POINT('',(0.,1.4,2.42));
#261=CARTESIAN_POINT('',(0.,4.51057309849916E-015,1.42));
#262=CARTESIAN_POINT('',(0.,-3.59999999999999,1.42));
#263=CARTESIAN_POINT('',(0.,4.77048955893622E-015,1.42));
#264=CARTESIAN_POINT('',(0.,4.41275127209914E-015,0.49793839814855));
#265=CARTESIAN_POINT('',(0.,-3.59999999999999,0.497938398148551));
#266=CARTESIAN_POINT('',(0.,3.33262933273479E-015,-9.68321444122357));
#267=CARTESIAN_POINT('',(0.,4.38114288692935E-015,0.200000000000001));
#268=CARTESIAN_POINT('',(0.,-3.34999999999999,0.200000000000001));
#269=CARTESIAN_POINT('',(0.,4.41275127209914E-015,0.49793839814855));
#270=CARTESIAN_POINT('',(0.,4.35992481945889E-015,0.));
#271=CARTESIAN_POINT('',(0.,-3.54999999999999,3.76620697600677E-016));
#272=CARTESIAN_POINT('',(0.,4.33680868994202E-015,0.2));
#273=CARTESIAN_POINT('',(0.,0.,0.));
#274=CARTESIAN_POINT('',(0.,4.35992481945889E-015,1.73472347597681E-015));
#275=CARTESIAN_POINT('',(0.,-7.45,2.52509648925147E-015));
#276=CARTESIAN_POINT('',(0.,0.,0.));
#277=CARTESIAN_POINT('',(0.,3.33262933273479E-015,-9.68321444122357));
#278=CARTESIAN_POINT('',(0.,3.61729245799277E-015,-7.));
#279=CARTESIAN_POINT('',(0.,-7.3720710888163,-7.));
#280=CARTESIAN_POINT('',(0.,3.61729245799277E-015,-7.));
#281=CARTESIAN_POINT('',(0.,3.63002329847504E-015,-6.88));
#282=CARTESIAN_POINT('',(0.,-7.45,-6.88));
#283=CARTESIAN_POINT('',(0.,3.63002329847504E-015,-6.88));
#284=CARTESIAN_POINT('',(0.,3.33262933273479E-015,-9.68321444122357));
#285=MECHANICAL_DESIGN_GEOMETRIC_PRESENTATION_REPRESENTATION('',(#26,#27),
#286);
#286=(
GEOMETRIC_REPRESENTATION_CONTEXT(3)
GLOBAL_UNCERTAINTY_ASSIGNED_CONTEXT((#287))
GLOBAL_UNIT_ASSIGNED_CONTEXT((#293,#289,#288))
REPRESENTATION_CONTEXT('SD400-14','TOP_LEVEL_ASSEMBLY_PART')
);
#287=UNCERTAINTY_MEASURE_WITH_UNIT(LENGTH_MEASURE(2.E-005),#293,
'DISTANCE_ACCURACY_VALUE','Maximum Tolerance applied to model');
#288=(
NAMED_UNIT(*)
SI_UNIT($,.STERADIAN.)
SOLID_ANGLE_UNIT()
);
#289=(
CONVERSION_BASED_UNIT('DEGREE',#291)
NAMED_UNIT(#290)
PLANE_ANGLE_UNIT()
);
#290=DIMENSIONAL_EXPONENTS(0.,0.,0.,0.,0.,0.,0.);
#291=PLANE_ANGLE_MEASURE_WITH_UNIT(PLANE_ANGLE_MEASURE(0.0174532925),#292);
#292=(
NAMED_UNIT(*)
PLANE_ANGLE_UNIT()
SI_UNIT($,.RADIAN.)
);
#293=(
LENGTH_UNIT()
NAMED_UNIT(*)
SI_UNIT(.MILLI.,.METRE.)
);
ENDSEC;
END-ISO-10303-21;
