ISO-10303-21;
HEADER;
/* Generated by software containing ST-Developer
 * from STEP Tools, Inc. (www.steptools.com) 
 */
/* OPTION: using custom schema-name function */

FILE_DESCRIPTION(
/* description */ (''),
/* implementation_level */ '2;1');

FILE_NAME(
/* name */ 'SD400-13.80-M.stp',
/* time_stamp */ '2012-07-06T16:12:27+06:00',
/* author */ (''),
/* organization */ (''),
/* preprocessor_version */ 'ST-DEVELOPER v11',
/* originating_system */ 'SIEMENS PLM Software NX 7.5',
/* authorisation */ '');

FILE_SCHEMA (('AUTOMOTIVE_DESIGN { 1 0 10303 214 1 1 1 1 }'));
ENDSEC;

DATA;
#10=SHAPE_DEFINITION_REPRESENTATION(#11,#20);
#11=PRODUCT_DEFINITION_SHAPE('','',#12);
#12=PRODUCT_DEFINITION(' ','',#14,#13);
#13=PRODUCT_DEFINITION_CONTEXT('part definition',#19,'design');
#14=PRODUCT_DEFINITION_FORMATION_WITH_SPECIFIED_SOURCE(' ',' ',#16,.NOT_KNOWN.);
#15=PRODUCT_RELATED_PRODUCT_CATEGORY('part','',(#16));
#16=PRODUCT('inpu2280px4z','inpu2280px4z',' ',(#17));
#17=PRODUCT_CONTEXT(' ',#19,'mechanical');
#18=APPLICATION_PROTOCOL_DEFINITION('international standard',
'automotive_design',2001,#19);
#19=APPLICATION_CONTEXT(
'core data for automotive mechanical design processes');
#20=SHAPE_REPRESENTATION('inpu2280px4z-None',(#192,#33,#34,#21),#316);
#21=GEOMETRIC_CURVE_SET('None',(#189));
#22=VERTEX_LOOP('',#149);
#23=SURFACE_STYLE_USAGE(.BOTH.,#25);
#24=SURFACE_STYLE_USAGE(.BOTH.,#26);
#25=SURFACE_SIDE_STYLE('',(#27));
#26=SURFACE_SIDE_STYLE('',(#28));
#27=SURFACE_STYLE_FILL_AREA(#29);
#28=SURFACE_STYLE_FILL_AREA(#30);
#29=FILL_AREA_STYLE('',(#31));
#30=FILL_AREA_STYLE('',(#32));
#31=FILL_AREA_STYLE_COLOUR('',#186);
#32=FILL_AREA_STYLE_COLOUR('',#187);
#33=MANIFOLD_SOLID_BREP('',#35);
#34=MANIFOLD_SOLID_BREP('',#36);
#35=CLOSED_SHELL('',(#51,#52,#53,#54,#55,#56,#57,#58,#59,#60));
#36=CLOSED_SHELL('',(#61,#62,#63,#64));
#37=FACE_OUTER_BOUND('',#104,.T.);
#38=FACE_OUTER_BOUND('',#107,.T.);
#39=FACE_OUTER_BOUND('',#108,.T.);
#40=PLANE('',#204);
#41=PLANE('',#209);
#42=PLANE('',#211);
#43=PLANE('',#213);
#44=CYLINDRICAL_SURFACE('',#201,3.1);
#45=CYLINDRICAL_SURFACE('',#208,0.949999999999998);
#46=CYLINDRICAL_SURFACE('',#218,6.89999999999999);
#47=CONICAL_SURFACE('',#197,2.8503671463254,0.615025973043881);
#48=CONICAL_SURFACE('',#199,2.84999999999686,40.0000000000001);
#49=CONICAL_SURFACE('',#215,6.01853107621011E-032,70.000000000024);
#50=CONICAL_SURFACE('',#217,6.83029479529549,32.9999999999997);
#51=ADVANCED_FACE('',(#68,#69),#65,.F.);
#52=ADVANCED_FACE('',(#70,#71),#47,.T.);
#53=ADVANCED_FACE('',(#72,#73),#48,.T.);
#54=ADVANCED_FACE('',(#74,#75),#44,.T.);
#55=ADVANCED_FACE('',(#76,#77),#40,.F.);
#56=ADVANCED_FACE('',(#78,#79),#66,.F.);
#57=ADVANCED_FACE('',(#80,#81),#45,.T.);
#58=ADVANCED_FACE('',(#37),#41,.F.);
#59=ADVANCED_FACE('',(#82,#83),#67,.T.);
#60=ADVANCED_FACE('',(#38),#42,.F.);
#61=ADVANCED_FACE('',(#39),#43,.T.);
#62=ADVANCED_FACE('',(#84,#85),#49,.T.);
#63=ADVANCED_FACE('',(#86,#87),#50,.T.);
#64=ADVANCED_FACE('',(#88,#89),#46,.T.);
#65=TOROIDAL_SURFACE('',#195,3.04999999999999,0.199644355440351);
#66=TOROIDAL_SURFACE('',#206,1.05,0.1);
#67=TOROIDAL_SURFACE('',#210,2.6,0.5);
#68=FACE_BOUND('',#90,.T.);
#69=FACE_BOUND('',#91,.T.);
#70=FACE_BOUND('',#92,.T.);
#71=FACE_BOUND('',#93,.T.);
#72=FACE_BOUND('',#94,.T.);
#73=FACE_BOUND('',#95,.T.);
#74=FACE_BOUND('',#96,.T.);
#75=FACE_BOUND('',#97,.T.);
#76=FACE_BOUND('',#98,.T.);
#77=FACE_BOUND('',#99,.T.);
#78=FACE_BOUND('',#100,.T.);
#79=FACE_BOUND('',#101,.T.);
#80=FACE_BOUND('',#102,.T.);
#81=FACE_BOUND('',#103,.T.);
#82=FACE_BOUND('',#105,.T.);
#83=FACE_BOUND('',#106,.T.);
#84=FACE_BOUND('',#109,.T.);
#85=FACE_BOUND('',#22,.T.);
#86=FACE_BOUND('',#110,.T.);
#87=FACE_BOUND('',#111,.T.);
#88=FACE_BOUND('',#112,.T.);
#89=FACE_BOUND('',#113,.T.);
#90=EDGE_LOOP('',(#114));
#91=EDGE_LOOP('',(#115));
#92=EDGE_LOOP('',(#116));
#93=EDGE_LOOP('',(#117));
#94=EDGE_LOOP('',(#118));
#95=EDGE_LOOP('',(#119));
#96=EDGE_LOOP('',(#120));
#97=EDGE_LOOP('',(#121));
#98=EDGE_LOOP('',(#122));
#99=EDGE_LOOP('',(#123));
#100=EDGE_LOOP('',(#124));
#101=EDGE_LOOP('',(#125));
#102=EDGE_LOOP('',(#126));
#103=EDGE_LOOP('',(#127));
#104=EDGE_LOOP('',(#128));
#105=EDGE_LOOP('',(#129));
#106=EDGE_LOOP('',(#130));
#107=EDGE_LOOP('',(#131));
#108=EDGE_LOOP('',(#132));
#109=EDGE_LOOP('',(#133));
#110=EDGE_LOOP('',(#134));
#111=EDGE_LOOP('',(#135));
#112=EDGE_LOOP('',(#136));
#113=EDGE_LOOP('',(#137));
#114=ORIENTED_EDGE('',*,*,#151,.F.);
#115=ORIENTED_EDGE('',*,*,#152,.F.);
#116=ORIENTED_EDGE('',*,*,#153,.F.);
#117=ORIENTED_EDGE('',*,*,#151,.T.);
#118=ORIENTED_EDGE('',*,*,#154,.F.);
#119=ORIENTED_EDGE('',*,*,#153,.T.);
#120=ORIENTED_EDGE('',*,*,#155,.T.);
#121=ORIENTED_EDGE('',*,*,#154,.T.);
#122=ORIENTED_EDGE('',*,*,#156,.T.);
#123=ORIENTED_EDGE('',*,*,#157,.F.);
#124=ORIENTED_EDGE('',*,*,#158,.F.);
#125=ORIENTED_EDGE('',*,*,#157,.T.);
#126=ORIENTED_EDGE('',*,*,#159,.F.);
#127=ORIENTED_EDGE('',*,*,#158,.T.);
#128=ORIENTED_EDGE('',*,*,#159,.T.);
#129=ORIENTED_EDGE('',*,*,#155,.F.);
#130=ORIENTED_EDGE('',*,*,#156,.F.);
#131=ORIENTED_EDGE('',*,*,#152,.T.);
#132=ORIENTED_EDGE('',*,*,#160,.T.);
#133=ORIENTED_EDGE('',*,*,#161,.F.);
#134=ORIENTED_EDGE('',*,*,#162,.F.);
#135=ORIENTED_EDGE('',*,*,#161,.T.);
#136=ORIENTED_EDGE('',*,*,#160,.F.);
#137=ORIENTED_EDGE('',*,*,#162,.T.);
#138=VERTEX_POINT('',#277);
#139=VERTEX_POINT('',#279);
#140=VERTEX_POINT('',#282);
#141=VERTEX_POINT('',#285);
#142=VERTEX_POINT('',#288);
#143=VERTEX_POINT('',#291);
#144=VERTEX_POINT('',#293);
#145=VERTEX_POINT('',#296);
#146=VERTEX_POINT('',#299);
#147=VERTEX_POINT('',#305);
#148=VERTEX_POINT('',#308);
#149=VERTEX_POINT('',#309);
#150=VERTEX_POINT('',#312);
#151=EDGE_CURVE('',#138,#138,#163,.T.);
#152=EDGE_CURVE('',#139,#139,#164,.T.);
#153=EDGE_CURVE('',#140,#140,#165,.T.);
#154=EDGE_CURVE('',#141,#141,#166,.T.);
#155=EDGE_CURVE('',#142,#142,#167,.T.);
#156=EDGE_CURVE('',#143,#143,#168,.T.);
#157=EDGE_CURVE('',#144,#144,#169,.T.);
#158=EDGE_CURVE('',#145,#145,#170,.T.);
#159=EDGE_CURVE('',#146,#146,#171,.T.);
#160=EDGE_CURVE('',#147,#147,#172,.T.);
#161=EDGE_CURVE('',#148,#148,#173,.T.);
#162=EDGE_CURVE('',#150,#150,#174,.T.);
#163=CIRCLE('',#193,2.8503671463254);
#164=CIRCLE('',#194,3.04999999999999);
#165=CIRCLE('',#196,2.84999999999686);
#166=CIRCLE('',#198,3.10000000000001);
#167=CIRCLE('',#200,3.1);
#168=CIRCLE('',#202,2.6);
#169=CIRCLE('',#203,1.05);
#170=CIRCLE('',#205,0.949999999999998);
#171=CIRCLE('',#207,0.949999999999998);
#172=CIRCLE('',#212,6.89999999999998);
#173=CIRCLE('',#214,6.83029479529549);
#174=CIRCLE('',#216,6.9);
#175=PRESENTATION_LAYER_ASSIGNMENT('101','Layer 101',(#189));
#176=PRESENTATION_LAYER_ASSIGNMENT('1','Layer 1',(#33));
#177=PRESENTATION_LAYER_ASSIGNMENT('3','Layer 3',(#34));
#178=STYLED_ITEM('',(#181),#189);
#179=STYLED_ITEM('',(#182),#33);
#180=STYLED_ITEM('',(#183),#34);
#181=PRESENTATION_STYLE_ASSIGNMENT((#184));
#182=PRESENTATION_STYLE_ASSIGNMENT((#23));
#183=PRESENTATION_STYLE_ASSIGNMENT((#24));
#184=CURVE_STYLE('',#188,POSITIVE_LENGTH_MEASURE(0.352777777777778),#185);
#185=COLOUR_RGB('Medium Royal',0.2,0.4,0.8);
#186=COLOUR_RGB('Medium Gray',0.490196078431373,0.490196078431373,0.490196078431373);
#187=COLOUR_RGB('Light Gray',0.8,0.8,0.8);
#188=DRAUGHTING_PRE_DEFINED_CURVE_FONT('continuous');
#189=TRIMMED_CURVE('Line14',#190,(PARAMETER_VALUE(0.)),(PARAMETER_VALUE(1.)),
 .T.,.PARAMETER.);
#190=LINE('Line14',#275,#191);
#191=VECTOR('',#221,0.12798422482257);
#192=AXIS2_PLACEMENT_3D('',#274,#219,#220);
#193=AXIS2_PLACEMENT_3D('',#276,#222,#223);
#194=AXIS2_PLACEMENT_3D('',#278,#224,#225);
#195=AXIS2_PLACEMENT_3D('',#280,#226,#227);
#196=AXIS2_PLACEMENT_3D('',#281,#228,#229);
#197=AXIS2_PLACEMENT_3D('',#283,#230,#231);
#198=AXIS2_PLACEMENT_3D('',#284,#232,#233);
#199=AXIS2_PLACEMENT_3D('',#286,#234,#235);
#200=AXIS2_PLACEMENT_3D('',#287,#236,#237);
#201=AXIS2_PLACEMENT_3D('',#289,#238,#239);
#202=AXIS2_PLACEMENT_3D('',#290,#240,#241);
#203=AXIS2_PLACEMENT_3D('',#292,#242,#243);
#204=AXIS2_PLACEMENT_3D('',#294,#244,#245);
#205=AXIS2_PLACEMENT_3D('',#295,#246,#247);
#206=AXIS2_PLACEMENT_3D('',#297,#248,#249);
#207=AXIS2_PLACEMENT_3D('',#298,#250,#251);
#208=AXIS2_PLACEMENT_3D('',#300,#252,#253);
#209=AXIS2_PLACEMENT_3D('',#301,#254,#255);
#210=AXIS2_PLACEMENT_3D('',#302,#256,#257);
#211=AXIS2_PLACEMENT_3D('',#303,#258,#259);
#212=AXIS2_PLACEMENT_3D('',#304,#260,#261);
#213=AXIS2_PLACEMENT_3D('',#306,#262,#263);
#214=AXIS2_PLACEMENT_3D('',#307,#264,#265);
#215=AXIS2_PLACEMENT_3D('',#310,#266,#267);
#216=AXIS2_PLACEMENT_3D('',#311,#268,#269);
#217=AXIS2_PLACEMENT_3D('',#313,#270,#271);
#218=AXIS2_PLACEMENT_3D('',#314,#272,#273);
#219=DIRECTION('',(0.,0.,1.));
#220=DIRECTION('',(1.,0.,0.));
#221=DIRECTION('',(0.,-0.544639035015021,-0.838670567945428));
#222=DIRECTION('',(0.,3.04076652676515E-017,1.));
#223=DIRECTION('',(0.,-1.,2.85279610527513E-017));
#224=DIRECTION('',(0.,-3.04076652676515E-017,-1.));
#225=DIRECTION('',(0.,-1.,3.04076652676515E-017));
#226=DIRECTION('',(0.,3.04076652676515E-017,1.));
#227=DIRECTION('',(0.,-1.,3.33637178071627E-017));
#228=DIRECTION('',(0.,3.04076652676515E-017,1.));
#229=DIRECTION('',(0.,-1.,2.85316361180711E-017));
#230=DIRECTION('',(0.,-3.04076652676515E-017,-1.));
#231=DIRECTION('',(0.,1.,-1.27693963779124E-016));
#232=DIRECTION('',(0.,3.04076652676515E-017,1.));
#233=DIRECTION('',(0.,-1.,3.49742636285646E-017));
#234=DIRECTION('',(0.,3.04076652676515E-017,1.));
#235=DIRECTION('',(0.,-1.,3.09054736484269E-017));
#236=DIRECTION('',(0.,-3.04076652676515E-017,-1.));
#237=DIRECTION('',(0.,1.,0.));
#238=DIRECTION('',(0.,3.04076652676515E-017,1.));
#239=DIRECTION('',(0.,-1.,0.));
#240=DIRECTION('',(0.,3.04076652676515E-017,1.));
#241=DIRECTION('',(0.,1.,0.));
#242=DIRECTION('',(0.,3.04076652676515E-017,1.));
#243=DIRECTION('',(0.,-1.,0.));
#244=DIRECTION('',(0.,-3.04076652676515E-017,-1.));
#245=DIRECTION('',(0.,1.,-3.03576608295941E-017));
#246=DIRECTION('',(0.,3.04076652676515E-017,1.));
#247=DIRECTION('',(0.,-1.,0.));
#248=DIRECTION('',(0.,3.04076652676515E-017,1.));
#249=DIRECTION('',(0.,-1.,0.));
#250=DIRECTION('',(0.,3.04076652676515E-017,1.));
#251=DIRECTION('',(0.,-1.,0.));
#252=DIRECTION('',(0.,3.04076652676515E-017,1.));
#253=DIRECTION('',(0.,-1.,0.));
#254=DIRECTION('',(0.,-3.04076652676515E-017,-1.));
#255=DIRECTION('',(0.,1.,-3.03576608295941E-017));
#256=DIRECTION('',(0.,-3.04076652676515E-017,-1.));
#257=DIRECTION('',(0.,1.,0.));
#258=DIRECTION('',(0.,0.,1.));
#259=DIRECTION('',(1.,0.,0.));
#260=DIRECTION('',(0.,3.04076652676515E-017,1.));
#261=DIRECTION('',(0.,-1.,3.04076652676515E-017));
#262=DIRECTION('',(0.,0.,1.));
#263=DIRECTION('',(1.,0.,0.));
#264=DIRECTION('',(0.,3.04076652676515E-017,1.));
#265=DIRECTION('',(0.,-1.,0.));
#266=DIRECTION('',(0.,3.04076652676515E-017,1.));
#267=DIRECTION('',(0.,-1.,2.27299575577513E-017));
#268=DIRECTION('',(0.,3.04076652676515E-017,1.));
#269=DIRECTION('',(0.,-1.,0.));
#270=DIRECTION('',(0.,3.04076652676515E-017,1.));
#271=DIRECTION('',(0.,-1.,-6.60859235544414E-017));
#272=DIRECTION('',(0.,3.04076652676515E-017,1.));
#273=DIRECTION('',(0.,-1.,0.));
#274=CARTESIAN_POINT('',(0.,0.,0.));
#275=CARTESIAN_POINT('',(0.,6.9,-6.39266339748002));
#276=CARTESIAN_POINT('',(0.,3.69712001690132E-016,0.197501368521593));
#277=CARTESIAN_POINT('',(0.,-2.8503671463254,0.197501368521593));
#278=CARTESIAN_POINT('',(0.,4.33680868994202E-016,0.));
#279=CARTESIAN_POINT('',(0.,-3.04999999999999,9.27433790663368E-017));
#280=CARTESIAN_POINT('',(0.,4.33680868994202E-016,0.199644355440351));
#281=CARTESIAN_POINT('',(0.,3.70752005093054E-016,0.231703382841593));
#282=CARTESIAN_POINT('',(0.,-2.84999999999686,0.231703382841593));
#283=CARTESIAN_POINT('',(0.,3.69712001690132E-016,0.197501368521593));
#284=CARTESIAN_POINT('',(0.,3.7981161617445E-016,0.529641780993897));
#285=CARTESIAN_POINT('',(0.,-3.10000000000001,0.529641780993897));
#286=CARTESIAN_POINT('',(0.,3.70752005093054E-016,0.231703382841593));
#287=CARTESIAN_POINT('',(0.,4.1205463396179E-016,1.59));
#288=CARTESIAN_POINT('',(0.,3.1,1.59));
#289=CARTESIAN_POINT('',(0.,9.04624364060359E-017,-8.9860239967477));
#290=CARTESIAN_POINT('',(0.,4.27258466595616E-016,2.09));
#291=CARTESIAN_POINT('',(0.,2.6,2.09));
#292=CARTESIAN_POINT('',(0.,4.27258466595616E-016,2.09));
#293=CARTESIAN_POINT('',(0.,-1.05,2.09));
#294=CARTESIAN_POINT('',(0.,3.1,2.09));
#295=CARTESIAN_POINT('',(0.,4.30299233122381E-016,2.19));
#296=CARTESIAN_POINT('',(0.,-0.949999999999998,2.19));
#297=CARTESIAN_POINT('',(0.,4.33680868994202E-016,2.19));
#298=CARTESIAN_POINT('',(0.,4.85033030604154E-016,3.99));
#299=CARTESIAN_POINT('',(0.,-0.949999999999998,3.99));
#300=CARTESIAN_POINT('',(0.,9.04624364060359E-017,-8.9860239967477));
#301=CARTESIAN_POINT('',(0.,0.949999999999999,3.99));
#302=CARTESIAN_POINT('',(0.,4.1205463396179E-016,1.59));
#303=CARTESIAN_POINT('',(0.,0.,0.));
#304=CARTESIAN_POINT('',(0.,3.63706446186224E-016,0.));
#305=CARTESIAN_POINT('',(0.,-6.89999999999998,2.09812890346795E-016));
#306=CARTESIAN_POINT('',(0.,0.,0.));
#307=CARTESIAN_POINT('',(0.,1.66056621946489E-016,-6.50000000000002));
#308=CARTESIAN_POINT('',(0.,-6.83029479529549,-6.50000000000002));
#309=CARTESIAN_POINT('',(0.,9.04624364060359E-017,-8.9860239967477));
#310=CARTESIAN_POINT('',(0.,9.04624364060359E-017,-8.9860239967477));
#311=CARTESIAN_POINT('',(0.,1.69320477426884E-016,-6.39266339748002));
#312=CARTESIAN_POINT('',(0.,-6.9,-6.39266339748002));
#313=CARTESIAN_POINT('',(0.,1.66056621946489E-016,-6.50000000000002));
#314=CARTESIAN_POINT('',(0.,9.04624364060359E-017,-8.9860239967477));
#315=MECHANICAL_DESIGN_GEOMETRIC_PRESENTATION_REPRESENTATION('',(#178,#179,
#180),#316);
#316=(
GEOMETRIC_REPRESENTATION_CONTEXT(3)
GLOBAL_UNCERTAINTY_ASSIGNED_CONTEXT((#317))
GLOBAL_UNIT_ASSIGNED_CONTEXT((#323,#319,#318))
REPRESENTATION_CONTEXT('SD400-13','TOP_LEVEL_ASSEMBLY_PART')
);
#317=UNCERTAINTY_MEASURE_WITH_UNIT(LENGTH_MEASURE(2.E-005),#323,
'DISTANCE_ACCURACY_VALUE','Maximum Tolerance applied to model');
#318=(
NAMED_UNIT(*)
SI_UNIT($,.STERADIAN.)
SOLID_ANGLE_UNIT()
);
#319=(
CONVERSION_BASED_UNIT('DEGREE',#321)
NAMED_UNIT(#320)
PLANE_ANGLE_UNIT()
);
#320=DIMENSIONAL_EXPONENTS(0.,0.,0.,0.,0.,0.,0.);
#321=PLANE_ANGLE_MEASURE_WITH_UNIT(PLANE_ANGLE_MEASURE(0.0174532925),#322);
#322=(
NAMED_UNIT(*)
PLANE_ANGLE_UNIT()
SI_UNIT($,.RADIAN.)
);
#323=(
LENGTH_UNIT()
NAMED_UNIT(*)
SI_UNIT(.MILLI.,.METRE.)
);
ENDSEC;
END-ISO-10303-21;
