ISO-10303-21;
HEADER;
/* Generated by software containing ST-Developer
 * from STEP Tools, Inc. (www.steptools.com) 
 */
/* OPTION: using custom schema-name function */

FILE_DESCRIPTION(
/* description */ (''),
/* implementation_level */ '2;1');

FILE_NAME(
/* name */ 'SD400-12.90-M.stp',
/* time_stamp */ '2012-07-06T15:43:41+05:00',
/* author */ (''),
/* organization */ (''),
/* preprocessor_version */ 'ST-DEVELOPER v11',
/* originating_system */ 'SIEMENS PLM Software NX 7.5',
/* authorisation */ '');

FILE_SCHEMA (('AUTOMOTIVE_DESIGN { 1 0 10303 214 1 1 1 1 }'));
ENDSEC;

DATA;
#10=SHAPE_REPRESENTATION_RELATIONSHIP('None',
'relationship between inpu2280px3e-None and inpu2280px3e-None',#22,#11);
#11=ADVANCED_BREP_SHAPE_REPRESENTATION('inpu2280px3e-None',(#42,#43),#306);
#12=SHAPE_DEFINITION_REPRESENTATION(#13,#22);
#13=PRODUCT_DEFINITION_SHAPE('','',#14);
#14=PRODUCT_DEFINITION(' ','',#16,#15);
#15=PRODUCT_DEFINITION_CONTEXT('part definition',#21,'design');
#16=PRODUCT_DEFINITION_FORMATION_WITH_SPECIFIED_SOURCE(' ',' ',#18,.NOT_KNOWN.);
#17=PRODUCT_RELATED_PRODUCT_CATEGORY('part','',(#18));
#18=PRODUCT('inpu2280px3e','inpu2280px3e',' ',(#19));
#19=PRODUCT_CONTEXT(' ',#21,'mechanical');
#20=APPLICATION_PROTOCOL_DEFINITION('international standard',
'automotive_design',2001,#21);
#21=APPLICATION_CONTEXT(
'core data for automotive mechanical design processes');
#22=SHAPE_REPRESENTATION('inpu2280px3e-None',(#184),#306);
#23=VERTEX_LOOP('',#158);
#24=PRESENTATION_LAYER_ASSIGNMENT('1','Layer 1',(#42));
#25=PRESENTATION_LAYER_ASSIGNMENT('3','Layer 3',(#43));
#26=STYLED_ITEM('',(#28),#42);
#27=STYLED_ITEM('',(#29),#43);
#28=PRESENTATION_STYLE_ASSIGNMENT((#30));
#29=PRESENTATION_STYLE_ASSIGNMENT((#31));
#30=SURFACE_STYLE_USAGE(.BOTH.,#32);
#31=SURFACE_STYLE_USAGE(.BOTH.,#33);
#32=SURFACE_SIDE_STYLE('',(#34));
#33=SURFACE_SIDE_STYLE('',(#35));
#34=SURFACE_STYLE_FILL_AREA(#36);
#35=SURFACE_STYLE_FILL_AREA(#37);
#36=FILL_AREA_STYLE('',(#38));
#37=FILL_AREA_STYLE('',(#39));
#38=FILL_AREA_STYLE_COLOUR('',#40);
#39=FILL_AREA_STYLE_COLOUR('',#41);
#40=COLOUR_RGB('Medium Gray',0.490196078431373,0.490196078431373,0.490196078431373);
#41=COLOUR_RGB('Light Gray',0.8,0.8,0.8);
#42=MANIFOLD_SOLID_BREP('',#44);
#43=MANIFOLD_SOLID_BREP('',#45);
#44=CLOSED_SHELL('',(#60,#61,#62,#63,#64,#65,#66,#67,#68,#69));
#45=CLOSED_SHELL('',(#70,#71,#72,#73));
#46=FACE_OUTER_BOUND('',#113,.T.);
#47=FACE_OUTER_BOUND('',#116,.T.);
#48=FACE_OUTER_BOUND('',#117,.T.);
#49=PLANE('',#196);
#50=PLANE('',#201);
#51=PLANE('',#203);
#52=PLANE('',#205);
#53=CYLINDRICAL_SURFACE('',#193,3.1);
#54=CYLINDRICAL_SURFACE('',#200,0.949999999999998);
#55=CYLINDRICAL_SURFACE('',#210,6.44999999999999);
#56=CONICAL_SURFACE('',#189,2.8503671463254,0.615025973043881);
#57=CONICAL_SURFACE('',#191,2.84999999999686,40.0000000000001);
#58=CONICAL_SURFACE('',#207,2.40741243048404E-032,70.000000000024);
#59=CONICAL_SURFACE('',#209,6.38114486730315,34.9999999773988);
#60=ADVANCED_FACE('',(#77,#78),#74,.F.);
#61=ADVANCED_FACE('',(#79,#80),#56,.T.);
#62=ADVANCED_FACE('',(#81,#82),#57,.T.);
#63=ADVANCED_FACE('',(#83,#84),#53,.T.);
#64=ADVANCED_FACE('',(#85,#86),#49,.F.);
#65=ADVANCED_FACE('',(#87,#88),#75,.F.);
#66=ADVANCED_FACE('',(#89,#90),#54,.T.);
#67=ADVANCED_FACE('',(#46),#50,.F.);
#68=ADVANCED_FACE('',(#91,#92),#76,.T.);
#69=ADVANCED_FACE('',(#47),#51,.F.);
#70=ADVANCED_FACE('',(#48),#52,.T.);
#71=ADVANCED_FACE('',(#93,#94),#58,.T.);
#72=ADVANCED_FACE('',(#95,#96),#59,.T.);
#73=ADVANCED_FACE('',(#97,#98),#55,.T.);
#74=TOROIDAL_SURFACE('',#187,3.04999999999999,0.199644355440351);
#75=TOROIDAL_SURFACE('',#198,1.05,0.1);
#76=TOROIDAL_SURFACE('',#202,2.6,0.5);
#77=FACE_BOUND('',#99,.T.);
#78=FACE_BOUND('',#100,.T.);
#79=FACE_BOUND('',#101,.T.);
#80=FACE_BOUND('',#102,.T.);
#81=FACE_BOUND('',#103,.T.);
#82=FACE_BOUND('',#104,.T.);
#83=FACE_BOUND('',#105,.T.);
#84=FACE_BOUND('',#106,.T.);
#85=FACE_BOUND('',#107,.T.);
#86=FACE_BOUND('',#108,.T.);
#87=FACE_BOUND('',#109,.T.);
#88=FACE_BOUND('',#110,.T.);
#89=FACE_BOUND('',#111,.T.);
#90=FACE_BOUND('',#112,.T.);
#91=FACE_BOUND('',#114,.T.);
#92=FACE_BOUND('',#115,.T.);
#93=FACE_BOUND('',#118,.T.);
#94=FACE_BOUND('',#23,.T.);
#95=FACE_BOUND('',#119,.T.);
#96=FACE_BOUND('',#120,.T.);
#97=FACE_BOUND('',#121,.T.);
#98=FACE_BOUND('',#122,.T.);
#99=EDGE_LOOP('',(#123));
#100=EDGE_LOOP('',(#124));
#101=EDGE_LOOP('',(#125));
#102=EDGE_LOOP('',(#126));
#103=EDGE_LOOP('',(#127));
#104=EDGE_LOOP('',(#128));
#105=EDGE_LOOP('',(#129));
#106=EDGE_LOOP('',(#130));
#107=EDGE_LOOP('',(#131));
#108=EDGE_LOOP('',(#132));
#109=EDGE_LOOP('',(#133));
#110=EDGE_LOOP('',(#134));
#111=EDGE_LOOP('',(#135));
#112=EDGE_LOOP('',(#136));
#113=EDGE_LOOP('',(#137));
#114=EDGE_LOOP('',(#138));
#115=EDGE_LOOP('',(#139));
#116=EDGE_LOOP('',(#140));
#117=EDGE_LOOP('',(#141));
#118=EDGE_LOOP('',(#142));
#119=EDGE_LOOP('',(#143));
#120=EDGE_LOOP('',(#144));
#121=EDGE_LOOP('',(#145));
#122=EDGE_LOOP('',(#146));
#123=ORIENTED_EDGE('',*,*,#160,.F.);
#124=ORIENTED_EDGE('',*,*,#161,.F.);
#125=ORIENTED_EDGE('',*,*,#162,.F.);
#126=ORIENTED_EDGE('',*,*,#160,.T.);
#127=ORIENTED_EDGE('',*,*,#163,.F.);
#128=ORIENTED_EDGE('',*,*,#162,.T.);
#129=ORIENTED_EDGE('',*,*,#164,.T.);
#130=ORIENTED_EDGE('',*,*,#163,.T.);
#131=ORIENTED_EDGE('',*,*,#165,.T.);
#132=ORIENTED_EDGE('',*,*,#166,.F.);
#133=ORIENTED_EDGE('',*,*,#167,.F.);
#134=ORIENTED_EDGE('',*,*,#166,.T.);
#135=ORIENTED_EDGE('',*,*,#168,.F.);
#136=ORIENTED_EDGE('',*,*,#167,.T.);
#137=ORIENTED_EDGE('',*,*,#168,.T.);
#138=ORIENTED_EDGE('',*,*,#164,.F.);
#139=ORIENTED_EDGE('',*,*,#165,.F.);
#140=ORIENTED_EDGE('',*,*,#161,.T.);
#141=ORIENTED_EDGE('',*,*,#169,.T.);
#142=ORIENTED_EDGE('',*,*,#170,.F.);
#143=ORIENTED_EDGE('',*,*,#171,.F.);
#144=ORIENTED_EDGE('',*,*,#170,.T.);
#145=ORIENTED_EDGE('',*,*,#169,.F.);
#146=ORIENTED_EDGE('',*,*,#171,.T.);
#147=VERTEX_POINT('',#267);
#148=VERTEX_POINT('',#269);
#149=VERTEX_POINT('',#272);
#150=VERTEX_POINT('',#275);
#151=VERTEX_POINT('',#278);
#152=VERTEX_POINT('',#281);
#153=VERTEX_POINT('',#283);
#154=VERTEX_POINT('',#286);
#155=VERTEX_POINT('',#289);
#156=VERTEX_POINT('',#295);
#157=VERTEX_POINT('',#298);
#158=VERTEX_POINT('',#299);
#159=VERTEX_POINT('',#302);
#160=EDGE_CURVE('',#147,#147,#172,.T.);
#161=EDGE_CURVE('',#148,#148,#173,.T.);
#162=EDGE_CURVE('',#149,#149,#174,.T.);
#163=EDGE_CURVE('',#150,#150,#175,.T.);
#164=EDGE_CURVE('',#151,#151,#176,.T.);
#165=EDGE_CURVE('',#152,#152,#177,.T.);
#166=EDGE_CURVE('',#153,#153,#178,.T.);
#167=EDGE_CURVE('',#154,#154,#179,.T.);
#168=EDGE_CURVE('',#155,#155,#180,.T.);
#169=EDGE_CURVE('',#156,#156,#181,.T.);
#170=EDGE_CURVE('',#157,#157,#182,.T.);
#171=EDGE_CURVE('',#159,#159,#183,.T.);
#172=CIRCLE('',#185,2.8503671463254);
#173=CIRCLE('',#186,3.04999999999999);
#174=CIRCLE('',#188,2.84999999999686);
#175=CIRCLE('',#190,3.10000000000001);
#176=CIRCLE('',#192,3.1);
#177=CIRCLE('',#194,2.6);
#178=CIRCLE('',#195,1.05);
#179=CIRCLE('',#197,0.949999999999998);
#180=CIRCLE('',#199,0.949999999999998);
#181=CIRCLE('',#204,6.44999999999998);
#182=CIRCLE('',#206,6.38114486730315);
#183=CIRCLE('',#208,6.45);
#184=AXIS2_PLACEMENT_3D('',#265,#211,#212);
#185=AXIS2_PLACEMENT_3D('',#266,#213,#214);
#186=AXIS2_PLACEMENT_3D('',#268,#215,#216);
#187=AXIS2_PLACEMENT_3D('',#270,#217,#218);
#188=AXIS2_PLACEMENT_3D('',#271,#219,#220);
#189=AXIS2_PLACEMENT_3D('',#273,#221,#222);
#190=AXIS2_PLACEMENT_3D('',#274,#223,#224);
#191=AXIS2_PLACEMENT_3D('',#276,#225,#226);
#192=AXIS2_PLACEMENT_3D('',#277,#227,#228);
#193=AXIS2_PLACEMENT_3D('',#279,#229,#230);
#194=AXIS2_PLACEMENT_3D('',#280,#231,#232);
#195=AXIS2_PLACEMENT_3D('',#282,#233,#234);
#196=AXIS2_PLACEMENT_3D('',#284,#235,#236);
#197=AXIS2_PLACEMENT_3D('',#285,#237,#238);
#198=AXIS2_PLACEMENT_3D('',#287,#239,#240);
#199=AXIS2_PLACEMENT_3D('',#288,#241,#242);
#200=AXIS2_PLACEMENT_3D('',#290,#243,#244);
#201=AXIS2_PLACEMENT_3D('',#291,#245,#246);
#202=AXIS2_PLACEMENT_3D('',#292,#247,#248);
#203=AXIS2_PLACEMENT_3D('',#293,#249,#250);
#204=AXIS2_PLACEMENT_3D('',#294,#251,#252);
#205=AXIS2_PLACEMENT_3D('',#296,#253,#254);
#206=AXIS2_PLACEMENT_3D('',#297,#255,#256);
#207=AXIS2_PLACEMENT_3D('',#300,#257,#258);
#208=AXIS2_PLACEMENT_3D('',#301,#259,#260);
#209=AXIS2_PLACEMENT_3D('',#303,#261,#262);
#210=AXIS2_PLACEMENT_3D('',#304,#263,#264);
#211=DIRECTION('',(0.,0.,1.));
#212=DIRECTION('',(1.,0.,0.));
#213=DIRECTION('',(0.,3.48914679149895E-017,1.));
#214=DIRECTION('',(0.,-1.,3.80372814036684E-017));
#215=DIRECTION('',(0.,-3.48914679149895E-017,-1.));
#216=DIRECTION('',(0.,-1.,3.48914679149895E-017));
#217=DIRECTION('',(0.,3.48914679149895E-017,1.));
#218=DIRECTION('',(0.,-1.,3.33637178071627E-017));
#219=DIRECTION('',(0.,3.48914679149895E-017,1.));
#220=DIRECTION('',(0.,-1.,3.80421814907614E-017));
#221=DIRECTION('',(0.,-3.48914679149895E-017,-1.));
#222=DIRECTION('',(0.,1.,-1.27693963779124E-016));
#223=DIRECTION('',(0.,3.48914679149895E-017,1.));
#224=DIRECTION('',(0.,-1.,3.49742636285646E-017));
#225=DIRECTION('',(0.,3.48914679149895E-017,1.));
#226=DIRECTION('',(0.,-1.,3.09054736484269E-017));
#227=DIRECTION('',(0.,-3.48914679149895E-017,-1.));
#228=DIRECTION('',(0.,1.,0.));
#229=DIRECTION('',(0.,3.48914679149895E-017,1.));
#230=DIRECTION('',(0.,-1.,0.));
#231=DIRECTION('',(0.,3.48914679149895E-017,1.));
#232=DIRECTION('',(0.,1.,0.));
#233=DIRECTION('',(0.,3.48914679149895E-017,1.));
#234=DIRECTION('',(0.,-1.,0.));
#235=DIRECTION('',(0.,-3.48914679149895E-017,-1.));
#236=DIRECTION('',(0.,1.,-3.46944695195361E-017));
#237=DIRECTION('',(0.,3.48914679149895E-017,1.));
#238=DIRECTION('',(0.,-1.,0.));
#239=DIRECTION('',(0.,3.48914679149895E-017,1.));
#240=DIRECTION('',(0.,-1.,0.));
#241=DIRECTION('',(0.,3.48914679149895E-017,1.));
#242=DIRECTION('',(0.,-1.,0.));
#243=DIRECTION('',(0.,3.48914679149895E-017,1.));
#244=DIRECTION('',(0.,-1.,0.));
#245=DIRECTION('',(0.,-3.48914679149895E-017,-1.));
#246=DIRECTION('',(0.,1.,-3.46944695195361E-017));
#247=DIRECTION('',(0.,-3.48914679149895E-017,-1.));
#248=DIRECTION('',(0.,1.,0.));
#249=DIRECTION('',(0.,0.,1.));
#250=DIRECTION('',(1.,0.,0.));
#251=DIRECTION('',(0.,3.48914679149895E-017,1.));
#252=DIRECTION('',(0.,-1.,3.48914679149895E-017));
#253=DIRECTION('',(0.,0.,1.));
#254=DIRECTION('',(1.,0.,0.));
#255=DIRECTION('',(0.,3.48914679149895E-017,1.));
#256=DIRECTION('',(0.,-1.,0.));
#257=DIRECTION('',(0.,3.48914679149895E-017,1.));
#258=DIRECTION('',(0.,-1.,5.24051799248156E-017));
#259=DIRECTION('',(0.,3.48914679149895E-017,1.));
#260=DIRECTION('',(0.,-1.,0.));
#261=DIRECTION('',(0.,3.48914679149895E-017,1.));
#262=DIRECTION('',(0.,-1.,3.43709562090932E-017));
#263=DIRECTION('',(0.,3.48914679149895E-017,1.));
#264=DIRECTION('',(0.,-1.,0.));
#265=CARTESIAN_POINT('',(0.,0.,0.));
#266=CARTESIAN_POINT('',(0.,3.52707186286284E-016,0.197501368521593));
#267=CARTESIAN_POINT('',(0.,-2.8503671463254,0.197501368521593));
#268=CARTESIAN_POINT('',(0.,4.33680868994202E-016,0.));
#269=CARTESIAN_POINT('',(0.,-3.04999999999999,1.06418977140717E-016));
#270=CARTESIAN_POINT('',(0.,4.33680868994202E-016,0.199644355440351));
#271=CARTESIAN_POINT('',(0.,3.53900544771558E-016,0.231703382841593));
#272=CARTESIAN_POINT('',(0.,-2.84999999999686,0.231703382841593));
#273=CARTESIAN_POINT('',(0.,3.52707186286284E-016,0.197501368521593));
#274=CARTESIAN_POINT('',(0.,3.64296052831333E-016,0.529641780993897));
#275=CARTESIAN_POINT('',(0.,-3.10000000000001,0.529641780993897));
#276=CARTESIAN_POINT('',(0.,3.53900544771558E-016,0.231703382841593));
#277=CARTESIAN_POINT('',(0.,4.01293507608179E-016,1.59));
#278=CARTESIAN_POINT('',(0.,3.1,1.59));
#279=CARTESIAN_POINT('',(0.,4.6707332272302E-017,-8.57254679223588));
#280=CARTESIAN_POINT('',(0.,4.18739241565674E-016,2.09));
#281=CARTESIAN_POINT('',(0.,2.6,2.09));
#282=CARTESIAN_POINT('',(0.,4.18739241565674E-016,2.09));
#283=CARTESIAN_POINT('',(0.,-1.05,2.09));
#284=CARTESIAN_POINT('',(0.,3.1,2.09));
#285=CARTESIAN_POINT('',(0.,4.22228388357173E-016,2.19));
#286=CARTESIAN_POINT('',(0.,-0.949999999999998,2.19));
#287=CARTESIAN_POINT('',(0.,4.33680868994202E-016,2.19));
#288=CARTESIAN_POINT('',(0.,4.85033030604154E-016,3.99));
#289=CARTESIAN_POINT('',(0.,-0.949999999999998,3.99));
#290=CARTESIAN_POINT('',(0.,4.6707332272302E-017,-8.57254679223588));
#291=CARTESIAN_POINT('',(0.,0.949999999999999,3.99));
#292=CARTESIAN_POINT('',(0.,4.01293507608179E-016,1.59));
#293=CARTESIAN_POINT('',(0.,0.,0.));
#294=CARTESIAN_POINT('',(0.,3.45816073623346E-016,-1.73472347597681E-015));
#295=CARTESIAN_POINT('',(0.,-6.44999999999998,-1.50967350792513E-015));
#296=CARTESIAN_POINT('',(0.,0.,0.));
#297=CARTESIAN_POINT('',(0.,1.27744399154662E-016,-6.25));
#298=CARTESIAN_POINT('',(0.,-6.38114486730315,-6.25));
#299=CARTESIAN_POINT('',(0.,4.6707332272302E-017,-8.57254679223588));
#300=CARTESIAN_POINT('',(0.,4.6707332272302E-017,-8.57254679223588));
#301=CARTESIAN_POINT('',(0.,1.311754628382E-016,-6.15166467940248));
#302=CARTESIAN_POINT('',(0.,-6.45,-6.15166467940248));
#303=CARTESIAN_POINT('',(0.,1.27744399154662E-016,-6.25));
#304=CARTESIAN_POINT('',(0.,4.6707332272302E-017,-8.57254679223588));
#305=MECHANICAL_DESIGN_GEOMETRIC_PRESENTATION_REPRESENTATION('',(#26,#27),
#306);
#306=(
GEOMETRIC_REPRESENTATION_CONTEXT(3)
GLOBAL_UNCERTAINTY_ASSIGNED_CONTEXT((#307))
GLOBAL_UNIT_ASSIGNED_CONTEXT((#313,#309,#308))
REPRESENTATION_CONTEXT('SD400-12','TOP_LEVEL_ASSEMBLY_PART')
);
#307=UNCERTAINTY_MEASURE_WITH_UNIT(LENGTH_MEASURE(2.E-005),#313,
'DISTANCE_ACCURACY_VALUE','Maximum Tolerance applied to model');
#308=(
NAMED_UNIT(*)
SI_UNIT($,.STERADIAN.)
SOLID_ANGLE_UNIT()
);
#309=(
CONVERSION_BASED_UNIT('DEGREE',#311)
NAMED_UNIT(#310)
PLANE_ANGLE_UNIT()
);
#310=DIMENSIONAL_EXPONENTS(0.,0.,0.,0.,0.,0.,0.);
#311=PLANE_ANGLE_MEASURE_WITH_UNIT(PLANE_ANGLE_MEASURE(0.0174532925),#312);
#312=(
NAMED_UNIT(*)
PLANE_ANGLE_UNIT()
SI_UNIT($,.RADIAN.)
);
#313=(
LENGTH_UNIT()
NAMED_UNIT(*)
SI_UNIT(.MILLI.,.METRE.)
);
ENDSEC;
END-ISO-10303-21;
