ISO-10303-21;
HEADER;
/* Generated by software containing ST-Developer
 * from STEP Tools, Inc. (www.steptools.com) 
 */
/* OPTION: using custom schema-name function */

FILE_DESCRIPTION(
/* description */ (''),
/* implementation_level */ '2;1');

FILE_NAME(
/* name */ 'SD100-10.80-M.stp',
/* time_stamp */ '2012-11-20T14:51:46+05:00',
/* author */ (''),
/* organization */ (''),
/* preprocessor_version */ 'ST-DEVELOPER v11',
/* originating_system */ 'SIEMENS PLM Software NX 7.5',
/* authorisation */ '');

FILE_SCHEMA (('AUTOMOTIVE_DESIGN { 1 0 10303 214 1 1 1 1 }'));
ENDSEC;

DATA;
#10=SHAPE_DEFINITION_REPRESENTATION(#11,#20);
#11=PRODUCT_DEFINITION_SHAPE('','',#12);
#12=PRODUCT_DEFINITION(' ','',#14,#13);
#13=PRODUCT_DEFINITION_CONTEXT('part definition',#19,'design');
#14=PRODUCT_DEFINITION_FORMATION_WITH_SPECIFIED_SOURCE(' ',' ',#16,.NOT_KNOWN.);
#15=PRODUCT_RELATED_PRODUCT_CATEGORY('part','',(#16));
#16=PRODUCT('inpu8E7Drnfx','inpu8E7Drnfx',' ',(#17));
#17=PRODUCT_CONTEXT(' ',#19,'mechanical');
#18=APPLICATION_PROTOCOL_DEFINITION('international standard',
'automotive_design',2001,#19);
#19=APPLICATION_CONTEXT(
'core data for automotive mechanical design processes');
#20=SHAPE_REPRESENTATION('inpu8E7Drnfx-None',(#66,#27,#21),#95);
#21=GEOMETRIC_CURVE_SET('None',(#85));
#22=SURFACE_STYLE_USAGE(.BOTH.,#23);
#23=SURFACE_SIDE_STYLE('',(#24));
#24=SURFACE_STYLE_FILL_AREA(#25);
#25=FILL_AREA_STYLE('',(#26));
#26=FILL_AREA_STYLE_COLOUR('',#65);
#27=MANIFOLD_SOLID_BREP('',#28);
#28=CLOSED_SHELL('',(#32,#33,#34));
#29=PLANE('',#71);
#30=FACE_OUTER_BOUND('',#44,.T.);
#31=CYLINDRICAL_SURFACE('',#70,5.4);
#32=ADVANCED_FACE('',(#37,#38),#35,.T.);
#33=ADVANCED_FACE('',(#39,#40),#31,.T.);
#34=ADVANCED_FACE('',(#30),#29,.F.);
#35=CONICAL_SURFACE('',#68,0.,70.0000000000001);
#36=VERTEX_LOOP('',#50);
#37=FACE_BOUND('',#41,.T.);
#38=FACE_BOUND('',#36,.T.);
#39=FACE_BOUND('',#42,.T.);
#40=FACE_BOUND('',#43,.T.);
#41=EDGE_LOOP('',(#45));
#42=EDGE_LOOP('',(#46));
#43=EDGE_LOOP('',(#47));
#44=EDGE_LOOP('',(#48));
#45=ORIENTED_EDGE('',*,*,#52,.F.);
#46=ORIENTED_EDGE('',*,*,#53,.F.);
#47=ORIENTED_EDGE('',*,*,#52,.T.);
#48=ORIENTED_EDGE('',*,*,#53,.T.);
#49=VERTEX_POINT('',#87);
#50=VERTEX_POINT('',#88);
#51=VERTEX_POINT('',#91);
#52=EDGE_CURVE('',#49,#49,#54,.T.);
#53=EDGE_CURVE('',#51,#51,#55,.T.);
#54=CIRCLE('',#67,5.4);
#55=CIRCLE('',#69,5.4);
#56=PRESENTATION_LAYER_ASSIGNMENT('61','Layer 61',(#85));
#57=PRESENTATION_LAYER_ASSIGNMENT('3','Layer 3',(#27));
#58=STYLED_ITEM('',(#60),#85);
#59=STYLED_ITEM('',(#61),#27);
#60=PRESENTATION_STYLE_ASSIGNMENT((#62));
#61=PRESENTATION_STYLE_ASSIGNMENT((#22));
#62=POINT_STYLE('',#63,POSITIVE_LENGTH_MEASURE(3.),#64);
#63=PRE_DEFINED_POINT_MARKER_SYMBOL('plus');
#64=COLOUR_RGB('Strong Stone',0.576470588235294,0.54508278019379,0.392156862745098);
#65=COLOUR_RGB('Light Gray',0.8,0.8,0.8);
#66=AXIS2_PLACEMENT_3D('',#84,#72,#73);
#67=AXIS2_PLACEMENT_3D('',#86,#74,#75);
#68=AXIS2_PLACEMENT_3D('',#89,#76,#77);
#69=AXIS2_PLACEMENT_3D('',#90,#78,#79);
#70=AXIS2_PLACEMENT_3D('',#92,#80,#81);
#71=AXIS2_PLACEMENT_3D('',#93,#82,#83);
#72=DIRECTION('',(0.,0.,1.));
#73=DIRECTION('',(1.,0.,0.));
#74=DIRECTION('',(2.54395972393758E-030,2.2605105872523E-015,1.));
#75=DIRECTION('',(0.,-1.,2.24871561700697E-015));
#76=DIRECTION('',(2.54395972393758E-030,2.2605105872523E-015,1.));
#77=DIRECTION('',(0.,-1.,2.27867824516753E-015));
#78=DIRECTION('',(2.54395972393758E-030,2.2605105872523E-015,1.));
#79=DIRECTION('',(3.0005929249162E-047,-1.,2.2605105872523E-015));
#80=DIRECTION('',(2.54395972393758E-030,2.2605105872523E-015,1.));
#81=DIRECTION('',(0.,-1.,2.24871561700697E-015));
#82=DIRECTION('',(-2.54395972393758E-030,-2.2605105872523E-015,-1.));
#83=DIRECTION('',(0.,1.,-2.2605105872523E-015));
#84=CARTESIAN_POINT('',(0.,0.,0.));
#85=CARTESIAN_POINT('',(0.,0.,0.));
#86=CARTESIAN_POINT('',(-2.00296714216273E-029,-1.46584181950633E-014,-6.48456073496251));
#87=CARTESIAN_POINT('',(-2.00296714216273E-029,-5.40000000000001,-6.4845607349625));
#88=CARTESIAN_POINT('',(-2.00296714216273E-029,-1.91013144622819E-014,-8.45));
#89=CARTESIAN_POINT('',(-2.00296714216273E-029,-1.91013144622819E-014,-8.45));
#90=CARTESIAN_POINT('',(0.,4.81482486096809E-032,0.));
#91=CARTESIAN_POINT('',(0.,-5.4,9.97465998686664E-015));
#92=CARTESIAN_POINT('',(-2.00296714216273E-029,-1.91013144622819E-014,-8.45));
#93=CARTESIAN_POINT('',(-6.32585896874563E-015,-5.4,9.97465998686664E-015));
#94=MECHANICAL_DESIGN_GEOMETRIC_PRESENTATION_REPRESENTATION('',(#58,#59),
#95);
#95=(
GEOMETRIC_REPRESENTATION_CONTEXT(3)
GLOBAL_UNCERTAINTY_ASSIGNED_CONTEXT((#96))
GLOBAL_UNIT_ASSIGNED_CONTEXT((#102,#98,#97))
REPRESENTATION_CONTEXT('SD100-10','TOP_LEVEL_ASSEMBLY_PART')
);
#96=UNCERTAINTY_MEASURE_WITH_UNIT(LENGTH_MEASURE(2.E-005),#102,
'DISTANCE_ACCURACY_VALUE','Maximum Tolerance applied to model');
#97=(
NAMED_UNIT(*)
SI_UNIT($,.STERADIAN.)
SOLID_ANGLE_UNIT()
);
#98=(
CONVERSION_BASED_UNIT('DEGREE',#100)
NAMED_UNIT(#99)
PLANE_ANGLE_UNIT()
);
#99=DIMENSIONAL_EXPONENTS(0.,0.,0.,0.,0.,0.,0.);
#100=PLANE_ANGLE_MEASURE_WITH_UNIT(PLANE_ANGLE_MEASURE(0.0174532925),#101);
#101=(
NAMED_UNIT(*)
PLANE_ANGLE_UNIT()
SI_UNIT($,.RADIAN.)
);
#102=(
LENGTH_UNIT()
NAMED_UNIT(*)
SI_UNIT(.MILLI.,.METRE.)
);
ENDSEC;
END-ISO-10303-21;
