ISO-10303-21;
HEADER;
/* Generated by software containing ST-Developer
 * from STEP Tools, Inc. (www.steptools.com) 
 */
/* OPTION: using custom schema-name function */

FILE_DESCRIPTION(
/* description */ (''),
/* implementation_level */ '2;1');

FILE_NAME(
/* name */ 'SD203A-C45-3.4-11.4-6R5.stp',
/* time_stamp */ '2017-12-20T17:09:27+06:00',
/* author */ (''),
/* organization */ (''),
/* preprocessor_version */ 'ST-DEVELOPER v16',
/* originating_system */ 'SIEMENS PLM Software NX 11.0',
/* authorisation */ '');

FILE_SCHEMA (('AUTOMOTIVE_DESIGN { 1 0 10303 214 3 1 1 1 }'));
ENDSEC;

DATA;
#10=CONSTRUCTIVE_GEOMETRY_REPRESENTATION_RELATIONSHIP(
'supplemental geometry','',#32,#11);
#11=CONSTRUCTIVE_GEOMETRY_REPRESENTATION('supplemental geometry',(#176,
#177,#178),#277);
#12=PROPERTY_DEFINITION_REPRESENTATION(#16,#14);
#13=PROPERTY_DEFINITION_REPRESENTATION(#17,#15);
#14=REPRESENTATION('',(#18),#277);
#15=REPRESENTATION('',(#19),#277);
#16=PROPERTY_DEFINITION('pmi validation property','',#23);
#17=PROPERTY_DEFINITION('pmi validation property','',#23);
#18=VALUE_REPRESENTATION_ITEM('number of annotations',COUNT_MEASURE(0.));
#19=VALUE_REPRESENTATION_ITEM('number of views',COUNT_MEASURE(0.));
#20=SHAPE_REPRESENTATION_RELATIONSHIP('None',
'relationship between SD203A-C45-3.4-11.4-6R5-None and SD203A-C45-3.4-
11.4-6R5-None',#32,#21);
#21=ADVANCED_BREP_SHAPE_REPRESENTATION('SD203A-C45-3.4-11.4-6R5-None',(#48,
#49,#50),#277);
#22=SHAPE_DEFINITION_REPRESENTATION(#23,#32);
#23=PRODUCT_DEFINITION_SHAPE('','',#24);
#24=PRODUCT_DEFINITION(' ','',#26,#25);
#25=PRODUCT_DEFINITION_CONTEXT('part definition',#31,'design');
#26=PRODUCT_DEFINITION_FORMATION_WITH_SPECIFIED_SOURCE(' ',' ',#28,
 .NOT_KNOWN.);
#27=PRODUCT_RELATED_PRODUCT_CATEGORY('part','',(#28));
#28=PRODUCT('SD203A-C45-3.4-11.4-6R5','SD203A-C45-3.4-11.4-6R5',' ',(#29));
#29=PRODUCT_CONTEXT(' ',#31,'mechanical');
#30=APPLICATION_PROTOCOL_DEFINITION('international standard',
'automotive_design',2010,#31);
#31=APPLICATION_CONTEXT(
'core data for automotive mechanical design processes');
#32=SHAPE_REPRESENTATION('SD203A-C45-3.4-11.4-6R5-None',(#175),#277);
#33=SURFACE_STYLE_USAGE(.BOTH.,#36);
#34=SURFACE_STYLE_USAGE(.BOTH.,#37);
#35=SURFACE_STYLE_USAGE(.BOTH.,#38);
#36=SURFACE_SIDE_STYLE('',(#39));
#37=SURFACE_SIDE_STYLE('',(#40));
#38=SURFACE_SIDE_STYLE('',(#41));
#39=SURFACE_STYLE_FILL_AREA(#42);
#40=SURFACE_STYLE_FILL_AREA(#43);
#41=SURFACE_STYLE_FILL_AREA(#44);
#42=FILL_AREA_STYLE('',(#45));
#43=FILL_AREA_STYLE('',(#46));
#44=FILL_AREA_STYLE('',(#47));
#45=FILL_AREA_STYLE_COLOUR('',#170);
#46=FILL_AREA_STYLE_COLOUR('',#171);
#47=FILL_AREA_STYLE_COLOUR('',#171);
#48=MANIFOLD_SOLID_BREP('CUT',#51);
#49=MANIFOLD_SOLID_BREP('NOCUT',#52);
#50=MANIFOLD_SOLID_BREP('NOCUT',#53);
#51=CLOSED_SHELL('',(#67,#68,#69));
#52=CLOSED_SHELL('',(#70,#71,#72,#73));
#53=CLOSED_SHELL('',(#74,#75,#76,#77));
#54=PLANE('',#183);
#55=PLANE('',#189);
#56=PLANE('',#190);
#57=PLANE('',#192);
#58=PLANE('',#197);
#59=FACE_OUTER_BOUND('',#97,.T.);
#60=FACE_OUTER_BOUND('',#102,.T.);
#61=FACE_OUTER_BOUND('',#103,.T.);
#62=FACE_OUTER_BOUND('',#104,.T.);
#63=FACE_OUTER_BOUND('',#109,.T.);
#64=CYLINDRICAL_SURFACE('',#182,1.7);
#65=CYLINDRICAL_SURFACE('',#186,2.999999);
#66=CYLINDRICAL_SURFACE('',#196,2.99999899999999);
#67=ADVANCED_FACE('',(#82,#83),#78,.T.);
#68=ADVANCED_FACE('',(#84,#85),#64,.T.);
#69=ADVANCED_FACE('',(#59),#54,.T.);
#70=ADVANCED_FACE('',(#86,#87),#65,.T.);
#71=ADVANCED_FACE('',(#88,#89),#79,.T.);
#72=ADVANCED_FACE('',(#60),#55,.F.);
#73=ADVANCED_FACE('',(#61),#56,.T.);
#74=ADVANCED_FACE('',(#62),#57,.T.);
#75=ADVANCED_FACE('',(#90,#91),#80,.T.);
#76=ADVANCED_FACE('',(#92,#93),#66,.T.);
#77=ADVANCED_FACE('',(#63),#58,.F.);
#78=CONICAL_SURFACE('',#180,1.54074395550979E-30,69.9999999999999);
#79=CONICAL_SURFACE('',#188,2.999999,44.9779716183211);
#80=CONICAL_SURFACE('',#194,2.24999599999991,45.000000000003);
#81=VERTEX_LOOP('',#127);
#82=FACE_BOUND('',#94,.T.);
#83=FACE_BOUND('',#81,.T.);
#84=FACE_BOUND('',#95,.T.);
#85=FACE_BOUND('',#96,.T.);
#86=FACE_BOUND('',#98,.T.);
#87=FACE_BOUND('',#99,.T.);
#88=FACE_BOUND('',#100,.T.);
#89=FACE_BOUND('',#101,.T.);
#90=FACE_BOUND('',#105,.T.);
#91=FACE_BOUND('',#106,.T.);
#92=FACE_BOUND('',#107,.T.);
#93=FACE_BOUND('',#108,.T.);
#94=EDGE_LOOP('',(#110));
#95=EDGE_LOOP('',(#111));
#96=EDGE_LOOP('',(#112));
#97=EDGE_LOOP('',(#113));
#98=EDGE_LOOP('',(#114));
#99=EDGE_LOOP('',(#115));
#100=EDGE_LOOP('',(#116));
#101=EDGE_LOOP('',(#117));
#102=EDGE_LOOP('',(#118));
#103=EDGE_LOOP('',(#119));
#104=EDGE_LOOP('',(#120));
#105=EDGE_LOOP('',(#121));
#106=EDGE_LOOP('',(#122));
#107=EDGE_LOOP('',(#123));
#108=EDGE_LOOP('',(#124));
#109=EDGE_LOOP('',(#125));
#110=ORIENTED_EDGE('',*,*,#135,.T.);
#111=ORIENTED_EDGE('',*,*,#136,.T.);
#112=ORIENTED_EDGE('',*,*,#135,.F.);
#113=ORIENTED_EDGE('',*,*,#136,.F.);
#114=ORIENTED_EDGE('',*,*,#137,.F.);
#115=ORIENTED_EDGE('',*,*,#138,.T.);
#116=ORIENTED_EDGE('',*,*,#139,.F.);
#117=ORIENTED_EDGE('',*,*,#137,.T.);
#118=ORIENTED_EDGE('',*,*,#139,.T.);
#119=ORIENTED_EDGE('',*,*,#138,.F.);
#120=ORIENTED_EDGE('',*,*,#140,.T.);
#121=ORIENTED_EDGE('',*,*,#141,.T.);
#122=ORIENTED_EDGE('',*,*,#140,.F.);
#123=ORIENTED_EDGE('',*,*,#142,.T.);
#124=ORIENTED_EDGE('',*,*,#141,.F.);
#125=ORIENTED_EDGE('',*,*,#142,.F.);
#126=VERTEX_POINT('',#249);
#127=VERTEX_POINT('',#250);
#128=VERTEX_POINT('',#253);
#129=VERTEX_POINT('',#257);
#130=VERTEX_POINT('',#259);
#131=VERTEX_POINT('',#262);
#132=VERTEX_POINT('',#267);
#133=VERTEX_POINT('',#270);
#134=VERTEX_POINT('',#273);
#135=EDGE_CURVE('',#126,#126,#143,.T.);
#136=EDGE_CURVE('',#128,#128,#144,.T.);
#137=EDGE_CURVE('',#129,#129,#145,.T.);
#138=EDGE_CURVE('',#130,#130,#146,.T.);
#139=EDGE_CURVE('',#131,#131,#147,.T.);
#140=EDGE_CURVE('',#132,#132,#148,.T.);
#141=EDGE_CURVE('',#133,#133,#149,.T.);
#142=EDGE_CURVE('',#134,#134,#150,.T.);
#143=CIRCLE('',#179,1.7);
#144=CIRCLE('',#181,1.7);
#145=CIRCLE('',#184,2.999999);
#146=CIRCLE('',#185,2.99999899999999);
#147=CIRCLE('',#187,1.7);
#148=CIRCLE('',#191,2.24999599999991);
#149=CIRCLE('',#193,2.99999899999999);
#150=CIRCLE('',#195,2.99999899999999);
#151=PRESENTATION_LAYER_ASSIGNMENT('1','Layer 1',(#176,#177,#178,#50));
#152=PRESENTATION_LAYER_ASSIGNMENT('3','Layer 3',(#48));
#153=PRESENTATION_LAYER_ASSIGNMENT('2','Layer 2',(#49));
#154=STYLED_ITEM('',(#160),#176);
#155=STYLED_ITEM('',(#161),#177);
#156=STYLED_ITEM('',(#162),#178);
#157=STYLED_ITEM('',(#163),#48);
#158=STYLED_ITEM('',(#164),#49);
#159=STYLED_ITEM('',(#165),#50);
#160=PRESENTATION_STYLE_ASSIGNMENT((#166));
#161=PRESENTATION_STYLE_ASSIGNMENT((#167));
#162=PRESENTATION_STYLE_ASSIGNMENT((#168));
#163=PRESENTATION_STYLE_ASSIGNMENT((#33));
#164=PRESENTATION_STYLE_ASSIGNMENT((#34));
#165=PRESENTATION_STYLE_ASSIGNMENT((#35));
#166=CURVE_STYLE('',#172,POSITIVE_LENGTH_MEASURE(0.18),#169);
#167=CURVE_STYLE('',#173,POSITIVE_LENGTH_MEASURE(0.18),#169);
#168=CURVE_STYLE('',#174,POSITIVE_LENGTH_MEASURE(0.18),#169);
#169=COLOUR_RGB('Strong Stone',0.576470588235294,0.54508278019379,0.392156862745098);
#170=COLOUR_RGB('Light Gray',0.8,0.8,0.8);
#171=COLOUR_RGB('Medium Gray',0.490196078431373,0.490196078431373,0.490196078431373);
#172=DRAUGHTING_PRE_DEFINED_CURVE_FONT('continuous');
#173=DRAUGHTING_PRE_DEFINED_CURVE_FONT('continuous');
#174=DRAUGHTING_PRE_DEFINED_CURVE_FONT('continuous');
#175=AXIS2_PLACEMENT_3D('',#244,#198,#199);
#176=AXIS2_PLACEMENT_3D('MCS',#245,#200,#201);
#177=AXIS2_PLACEMENT_3D('CIP',#246,#202,#203);
#178=AXIS2_PLACEMENT_3D('PCS',#247,#204,#205);
#179=AXIS2_PLACEMENT_3D('',#248,#206,#207);
#180=AXIS2_PLACEMENT_3D('',#251,#208,#209);
#181=AXIS2_PLACEMENT_3D('',#252,#210,#211);
#182=AXIS2_PLACEMENT_3D('',#254,#212,#213);
#183=AXIS2_PLACEMENT_3D('',#255,#214,#215);
#184=AXIS2_PLACEMENT_3D('',#256,#216,#217);
#185=AXIS2_PLACEMENT_3D('',#258,#218,#219);
#186=AXIS2_PLACEMENT_3D('',#260,#220,#221);
#187=AXIS2_PLACEMENT_3D('',#261,#222,#223);
#188=AXIS2_PLACEMENT_3D('',#263,#224,#225);
#189=AXIS2_PLACEMENT_3D('',#264,#226,#227);
#190=AXIS2_PLACEMENT_3D('',#265,#228,#229);
#191=AXIS2_PLACEMENT_3D('',#266,#230,#231);
#192=AXIS2_PLACEMENT_3D('',#268,#232,#233);
#193=AXIS2_PLACEMENT_3D('',#269,#234,#235);
#194=AXIS2_PLACEMENT_3D('',#271,#236,#237);
#195=AXIS2_PLACEMENT_3D('',#272,#238,#239);
#196=AXIS2_PLACEMENT_3D('',#274,#240,#241);
#197=AXIS2_PLACEMENT_3D('',#275,#242,#243);
#198=DIRECTION('',(0.,0.,1.));
#199=DIRECTION('',(1.,0.,0.));
#200=DIRECTION('',(0.,0.,1.));
#201=DIRECTION('',(1.,0.,0.));
#202=DIRECTION('',(0.,0.,1.));
#203=DIRECTION('',(1.,0.,0.));
#204=DIRECTION('',(0.,0.,1.));
#205=DIRECTION('',(1.,0.,0.));
#206=DIRECTION('',(0.,8.8679243702044E-16,-1.));
#207=DIRECTION('',(0.,-1.,0.));
#208=DIRECTION('',(0.,-8.8679243702044E-16,1.));
#209=DIRECTION('',(0.,1.,8.85205569333583E-16));
#210=DIRECTION('',(0.,8.8679243702044E-16,-1.));
#211=DIRECTION('',(0.,1.,0.));
#212=DIRECTION('',(0.,8.8679243702044E-16,-1.));
#213=DIRECTION('',(0.,-1.,0.));
#214=DIRECTION('',(0.,-8.8679243702044E-16,1.));
#215=DIRECTION('',(0.,1.,8.88178419700125E-16));
#216=DIRECTION('',(0.,0.,-1.));
#217=DIRECTION('',(-1.,0.,0.));
#218=DIRECTION('',(0.,0.,-1.));
#219=DIRECTION('',(1.,0.,0.));
#220=DIRECTION('',(0.,0.,-1.));
#221=DIRECTION('',(1.,0.,0.));
#222=DIRECTION('',(0.,0.,-1.));
#223=DIRECTION('',(-1.,0.,0.));
#224=DIRECTION('',(0.,0.,1.));
#225=DIRECTION('',(-1.,0.,4.84641164896365E-17));
#226=DIRECTION('',(0.,0.,1.));
#227=DIRECTION('',(-1.,0.,0.));
#228=DIRECTION('',(0.,0.,1.));
#229=DIRECTION('',(1.,0.,0.));
#230=DIRECTION('',(0.,2.66453525910038E-16,1.));
#231=DIRECTION('',(0.,-1.,0.));
#232=DIRECTION('',(0.,2.66453525910038E-16,1.));
#233=DIRECTION('',(0.,1.,-2.63677968348475E-16));
#234=DIRECTION('',(0.,2.66453525910038E-16,1.));
#235=DIRECTION('',(0.,-1.,0.));
#236=DIRECTION('',(0.,-2.66453525910038E-16,-1.));
#237=DIRECTION('',(0.,-1.,2.49239392903559E-16));
#238=DIRECTION('',(0.,0.,1.));
#239=DIRECTION('',(1.,0.,0.));
#240=DIRECTION('',(0.,2.66453525910038E-16,1.));
#241=DIRECTION('',(0.,1.,-2.89120675703027E-16));
#242=DIRECTION('',(0.,0.,1.));
#243=DIRECTION('',(1.,0.,0.));
#244=CARTESIAN_POINT('',(0.,0.,0.));
#245=CARTESIAN_POINT('',(0.,0.,0.));
#246=CARTESIAN_POINT('',(0.,0.,-30.0000039999999));
#247=CARTESIAN_POINT('',(0.,0.,36.));
#248=CARTESIAN_POINT('',(0.,1.01094387496202E-14,-29.3812546017474));
#249=CARTESIAN_POINT('',(0.,-1.69999999999999,-29.3812546017474));
#250=CARTESIAN_POINT('',(0.,1.06581410364015E-14,-30.0000039999999));
#251=CARTESIAN_POINT('',(0.,1.06581410364015E-14,-30.0000039999999));
#252=CARTESIAN_POINT('',(0.,1.33688140480631E-30,-17.981249));
#253=CARTESIAN_POINT('',(0.,1.7,-17.981249));
#254=CARTESIAN_POINT('',(0.,0.,-17.981249));
#255=CARTESIAN_POINT('',(0.,1.7,-17.981249));
#256=CARTESIAN_POINT('',(0.,0.,-16.68025));
#257=CARTESIAN_POINT('',(-2.999999,0.,-16.68025));
#258=CARTESIAN_POINT('',(0.,1.06581410364015E-15,0.));
#259=CARTESIAN_POINT('',(2.99999899999999,1.06581410364015E-15,0.));
#260=CARTESIAN_POINT('',(0.,0.,-4.));
#261=CARTESIAN_POINT('',(0.,0.,-17.981249));
#262=CARTESIAN_POINT('',(-1.7,0.,-17.981249));
#263=CARTESIAN_POINT('',(0.,0.,-16.68025));
#264=CARTESIAN_POINT('',(0.,1.7,-17.981249));
#265=CARTESIAN_POINT('',(0.,0.,0.));
#266=CARTESIAN_POINT('',(0.,1.06581410364015E-14,36.));
#267=CARTESIAN_POINT('',(0.,-2.2499959999999,36.));
#268=CARTESIAN_POINT('',(0.,1.06581410364015E-14,36.));
#269=CARTESIAN_POINT('',(0.,1.04583000926084E-14,35.249997));
#270=CARTESIAN_POINT('',(0.,-2.99999899999998,35.249997));
#271=CARTESIAN_POINT('',(0.,1.06581410364015E-14,36.));
#272=CARTESIAN_POINT('',(0.,1.06581410364015E-15,0.));
#273=CARTESIAN_POINT('',(2.99999899999999,1.06581410364015E-15,0.));
#274=CARTESIAN_POINT('',(0.,0.,-4.));
#275=CARTESIAN_POINT('',(0.,0.,0.));
#276=MECHANICAL_DESIGN_GEOMETRIC_PRESENTATION_REPRESENTATION('',(#154,#155,
#156,#157,#158,#159),#277);
#277=(
GEOMETRIC_REPRESENTATION_CONTEXT(3)
GLOBAL_UNCERTAINTY_ASSIGNED_CONTEXT((#278))
GLOBAL_UNIT_ASSIGNED_CONTEXT((#284,#280,#279))
REPRESENTATION_CONTEXT('SD203A-C45-3.4-11','TOP_LEVEL_ASSEMBLY_PART')
);
#278=UNCERTAINTY_MEASURE_WITH_UNIT(LENGTH_MEASURE(2.E-5),#284,
'DISTANCE_ACCURACY_VALUE','Maximum Tolerance applied to model');
#279=(
NAMED_UNIT(*)
SI_UNIT($,.STERADIAN.)
SOLID_ANGLE_UNIT()
);
#280=(
CONVERSION_BASED_UNIT('DEGREE',#282)
NAMED_UNIT(#281)
PLANE_ANGLE_UNIT()
);
#281=DIMENSIONAL_EXPONENTS(0.,0.,0.,0.,0.,0.,0.);
#282=PLANE_ANGLE_MEASURE_WITH_UNIT(PLANE_ANGLE_MEASURE(0.0174532925),#283);
#283=(
NAMED_UNIT(*)
PLANE_ANGLE_UNIT()
SI_UNIT($,.RADIAN.)
);
#284=(
LENGTH_UNIT()
NAMED_UNIT(*)
SI_UNIT(.MILLI.,.METRE.)
);
ENDSEC;
END-ISO-10303-21;
