ISO-10303-21;
HEADER;
/* Generated by software containing ST-Developer
 * from STEP Tools, Inc. (www.steptools.com) 
 */
/* OPTION: using custom schema-name function */

FILE_DESCRIPTION(
/* description */ (''),
/* implementation_level */ '2;1');

FILE_NAME(
/* name */ 'SD203A-C45-14.5-38.5-18R1.stp',
/* time_stamp */ '2017-12-20T17:09:28+06:00',
/* author */ (''),
/* organization */ (''),
/* preprocessor_version */ 'ST-DEVELOPER v16',
/* originating_system */ 'SIEMENS PLM Software NX 11.0',
/* authorisation */ '');

FILE_SCHEMA (('AUTOMOTIVE_DESIGN { 1 0 10303 214 3 1 1 1 }'));
ENDSEC;

DATA;
#10=CONSTRUCTIVE_GEOMETRY_REPRESENTATION_RELATIONSHIP(
'supplemental geometry','',#32,#11);
#11=CONSTRUCTIVE_GEOMETRY_REPRESENTATION('supplemental geometry',(#176,
#177,#178),#291);
#12=PROPERTY_DEFINITION_REPRESENTATION(#16,#14);
#13=PROPERTY_DEFINITION_REPRESENTATION(#17,#15);
#14=REPRESENTATION('',(#18),#291);
#15=REPRESENTATION('',(#19),#291);
#16=PROPERTY_DEFINITION('pmi validation property','',#23);
#17=PROPERTY_DEFINITION('pmi validation property','',#23);
#18=VALUE_REPRESENTATION_ITEM('number of annotations',COUNT_MEASURE(0.));
#19=VALUE_REPRESENTATION_ITEM('number of views',COUNT_MEASURE(0.));
#20=SHAPE_REPRESENTATION_RELATIONSHIP('None',
'relationship between SD203A-C45-14.5-38.5-18R1-None and SD203A-C45-14.
5-38.5-18R1-None',#32,#21);
#21=ADVANCED_BREP_SHAPE_REPRESENTATION('SD203A-C45-14.5-38.5-18R1-None',
(#49,#50,#51),#291);
#22=SHAPE_DEFINITION_REPRESENTATION(#23,#32);
#23=PRODUCT_DEFINITION_SHAPE('','',#24);
#24=PRODUCT_DEFINITION(' ','',#26,#25);
#25=PRODUCT_DEFINITION_CONTEXT('part definition',#31,'design');
#26=PRODUCT_DEFINITION_FORMATION_WITH_SPECIFIED_SOURCE(' ',' ',#28,
 .NOT_KNOWN.);
#27=PRODUCT_RELATED_PRODUCT_CATEGORY('part','',(#28));
#28=PRODUCT('SD203A-C45-14.5-38.5-18R1','SD203A-C45-14.5-38.5-18R1',' ',
(#29));
#29=PRODUCT_CONTEXT(' ',#31,'mechanical');
#30=APPLICATION_PROTOCOL_DEFINITION('international standard',
'automotive_design',2010,#31);
#31=APPLICATION_CONTEXT(
'core data for automotive mechanical design processes');
#32=SHAPE_REPRESENTATION('SD203A-C45-14.5-38.5-18R1-None',(#175),#291);
#33=B_SPLINE_CURVE_WITH_KNOTS('',3,(#265,#266,#267,#268,#269,#270,#271,
#272,#273,#274,#275,#276,#277,#278,#279,#280,#281,#282),.UNSPECIFIED.,.T.,
 .F.,(2,2,2,2,2,2,2,2,2,2,2),(-0.125,0.,0.125,0.25,0.375,0.5,0.625,0.75,
0.875,1.,1.125),.UNSPECIFIED.);
#34=SURFACE_STYLE_USAGE(.BOTH.,#37);
#35=SURFACE_STYLE_USAGE(.BOTH.,#38);
#36=SURFACE_STYLE_USAGE(.BOTH.,#39);
#37=SURFACE_SIDE_STYLE('',(#40));
#38=SURFACE_SIDE_STYLE('',(#41));
#39=SURFACE_SIDE_STYLE('',(#42));
#40=SURFACE_STYLE_FILL_AREA(#43);
#41=SURFACE_STYLE_FILL_AREA(#44);
#42=SURFACE_STYLE_FILL_AREA(#45);
#43=FILL_AREA_STYLE('',(#46));
#44=FILL_AREA_STYLE('',(#47));
#45=FILL_AREA_STYLE('',(#48));
#46=FILL_AREA_STYLE_COLOUR('',#170);
#47=FILL_AREA_STYLE_COLOUR('',#171);
#48=FILL_AREA_STYLE_COLOUR('',#171);
#49=MANIFOLD_SOLID_BREP('CUT',#52);
#50=MANIFOLD_SOLID_BREP('NOCUT',#53);
#51=MANIFOLD_SOLID_BREP('NOCUT',#54);
#52=CLOSED_SHELL('',(#69,#70,#71));
#53=CLOSED_SHELL('',(#72,#73,#74,#75));
#54=CLOSED_SHELL('',(#76,#77,#78,#79));
#55=CONICAL_SURFACE('',#183,5.17213037131275E-15,70.0001133274926);
#56=CONICAL_SURFACE('',#189,7.20000400000001,44.9998072241065);
#57=CONICAL_SURFACE('',#195,7.24887905215521,44.9999999999999);
#58=VERTEX_LOOP('',#129);
#59=PLANE('',#182);
#60=PLANE('',#188);
#61=PLANE('',#190);
#62=PLANE('',#193);
#63=PLANE('',#196);
#64=FACE_OUTER_BOUND('',#97,.T.);
#65=FACE_OUTER_BOUND('',#101,.T.);
#66=FACE_OUTER_BOUND('',#104,.T.);
#67=FACE_OUTER_BOUND('',#107,.T.);
#68=FACE_OUTER_BOUND('',#110,.T.);
#69=ADVANCED_FACE('',(#83,#84),#80,.T.);
#70=ADVANCED_FACE('',(#64),#59,.T.);
#71=ADVANCED_FACE('',(#85,#86),#55,.T.);
#72=ADVANCED_FACE('',(#87,#88),#81,.T.);
#73=ADVANCED_FACE('',(#65),#60,.T.);
#74=ADVANCED_FACE('',(#89,#90),#56,.T.);
#75=ADVANCED_FACE('',(#66),#61,.F.);
#76=ADVANCED_FACE('',(#91,#92),#82,.T.);
#77=ADVANCED_FACE('',(#67),#62,.T.);
#78=ADVANCED_FACE('',(#93,#94),#57,.T.);
#79=ADVANCED_FACE('',(#68),#63,.F.);
#80=CYLINDRICAL_SURFACE('',#181,7.25000427550463);
#81=CYLINDRICAL_SURFACE('',#186,9.00000222187486);
#82=CYLINDRICAL_SURFACE('',#192,9.00000222187486);
#83=FACE_BOUND('',#95,.T.);
#84=FACE_BOUND('',#96,.T.);
#85=FACE_BOUND('',#98,.T.);
#86=FACE_BOUND('',#58,.T.);
#87=FACE_BOUND('',#99,.T.);
#88=FACE_BOUND('',#100,.T.);
#89=FACE_BOUND('',#102,.T.);
#90=FACE_BOUND('',#103,.T.);
#91=FACE_BOUND('',#105,.T.);
#92=FACE_BOUND('',#106,.T.);
#93=FACE_BOUND('',#108,.T.);
#94=FACE_BOUND('',#109,.T.);
#95=EDGE_LOOP('',(#111));
#96=EDGE_LOOP('',(#112));
#97=EDGE_LOOP('',(#113));
#98=EDGE_LOOP('',(#114));
#99=EDGE_LOOP('',(#115));
#100=EDGE_LOOP('',(#116));
#101=EDGE_LOOP('',(#117));
#102=EDGE_LOOP('',(#118));
#103=EDGE_LOOP('',(#119));
#104=EDGE_LOOP('',(#120));
#105=EDGE_LOOP('',(#121));
#106=EDGE_LOOP('',(#122));
#107=EDGE_LOOP('',(#123));
#108=EDGE_LOOP('',(#124));
#109=EDGE_LOOP('',(#125));
#110=EDGE_LOOP('',(#126));
#111=ORIENTED_EDGE('',*,*,#136,.T.);
#112=ORIENTED_EDGE('',*,*,#137,.F.);
#113=ORIENTED_EDGE('',*,*,#136,.F.);
#114=ORIENTED_EDGE('',*,*,#137,.T.);
#115=ORIENTED_EDGE('',*,*,#138,.F.);
#116=ORIENTED_EDGE('',*,*,#139,.F.);
#117=ORIENTED_EDGE('',*,*,#140,.T.);
#118=ORIENTED_EDGE('',*,*,#139,.T.);
#119=ORIENTED_EDGE('',*,*,#140,.F.);
#120=ORIENTED_EDGE('',*,*,#138,.T.);
#121=ORIENTED_EDGE('',*,*,#141,.F.);
#122=ORIENTED_EDGE('',*,*,#142,.T.);
#123=ORIENTED_EDGE('',*,*,#141,.T.);
#124=ORIENTED_EDGE('',*,*,#142,.F.);
#125=ORIENTED_EDGE('',*,*,#143,.F.);
#126=ORIENTED_EDGE('',*,*,#143,.T.);
#127=VERTEX_POINT('',#246);
#128=VERTEX_POINT('',#248);
#129=VERTEX_POINT('',#251);
#130=VERTEX_POINT('',#254);
#131=VERTEX_POINT('',#256);
#132=VERTEX_POINT('',#259);
#133=VERTEX_POINT('',#264);
#134=VERTEX_POINT('',#283);
#135=VERTEX_POINT('',#287);
#136=EDGE_CURVE('',#127,#127,#144,.T.);
#137=EDGE_CURVE('',#128,#128,#145,.T.);
#138=EDGE_CURVE('',#130,#130,#146,.T.);
#139=EDGE_CURVE('',#131,#131,#147,.T.);
#140=EDGE_CURVE('',#132,#132,#148,.T.);
#141=EDGE_CURVE('',#133,#133,#149,.T.);
#142=EDGE_CURVE('',#134,#134,#33,.T.);
#143=EDGE_CURVE('',#135,#135,#150,.T.);
#144=CIRCLE('',#179,7.25000099999992);
#145=CIRCLE('',#180,7.25000427550463);
#146=CIRCLE('',#184,9.00000222187486);
#147=CIRCLE('',#185,9.00000294374969);
#148=CIRCLE('',#187,7.20000400000001);
#149=CIRCLE('',#191,9.00000222187486);
#150=CIRCLE('',#194,7.24887905215521);
#151=PRESENTATION_LAYER_ASSIGNMENT('1','Layer 1',(#176,#177,#178,#50));
#152=PRESENTATION_LAYER_ASSIGNMENT('3','Layer 3',(#49));
#153=PRESENTATION_LAYER_ASSIGNMENT('2','Layer 2',(#51));
#154=STYLED_ITEM('',(#160),#176);
#155=STYLED_ITEM('',(#161),#177);
#156=STYLED_ITEM('',(#162),#178);
#157=STYLED_ITEM('',(#163),#49);
#158=STYLED_ITEM('',(#164),#50);
#159=STYLED_ITEM('',(#165),#51);
#160=PRESENTATION_STYLE_ASSIGNMENT((#166));
#161=PRESENTATION_STYLE_ASSIGNMENT((#167));
#162=PRESENTATION_STYLE_ASSIGNMENT((#168));
#163=PRESENTATION_STYLE_ASSIGNMENT((#34));
#164=PRESENTATION_STYLE_ASSIGNMENT((#35));
#165=PRESENTATION_STYLE_ASSIGNMENT((#36));
#166=CURVE_STYLE('',#172,POSITIVE_LENGTH_MEASURE(0.18),#169);
#167=CURVE_STYLE('',#173,POSITIVE_LENGTH_MEASURE(0.18),#169);
#168=CURVE_STYLE('',#174,POSITIVE_LENGTH_MEASURE(0.18),#169);
#169=COLOUR_RGB('Strong Stone',0.576470588235294,0.54508278019379,0.392156862745098);
#170=COLOUR_RGB('Light Gray',0.8,0.8,0.8);
#171=COLOUR_RGB('Medium Gray',0.490196078431373,0.490196078431373,0.490196078431373);
#172=DRAUGHTING_PRE_DEFINED_CURVE_FONT('continuous');
#173=DRAUGHTING_PRE_DEFINED_CURVE_FONT('continuous');
#174=DRAUGHTING_PRE_DEFINED_CURVE_FONT('continuous');
#175=AXIS2_PLACEMENT_3D('',#241,#197,#198);
#176=AXIS2_PLACEMENT_3D('MCS',#242,#199,#200);
#177=AXIS2_PLACEMENT_3D('CIP',#243,#201,#202);
#178=AXIS2_PLACEMENT_3D('PCS',#244,#203,#204);
#179=AXIS2_PLACEMENT_3D('',#245,#205,#206);
#180=AXIS2_PLACEMENT_3D('',#247,#207,#208);
#181=AXIS2_PLACEMENT_3D('',#249,#209,#210);
#182=AXIS2_PLACEMENT_3D('',#250,#211,#212);
#183=AXIS2_PLACEMENT_3D('',#252,#213,#214);
#184=AXIS2_PLACEMENT_3D('',#253,#215,#216);
#185=AXIS2_PLACEMENT_3D('',#255,#217,#218);
#186=AXIS2_PLACEMENT_3D('',#257,#219,#220);
#187=AXIS2_PLACEMENT_3D('',#258,#221,#222);
#188=AXIS2_PLACEMENT_3D('',#260,#223,#224);
#189=AXIS2_PLACEMENT_3D('',#261,#225,#226);
#190=AXIS2_PLACEMENT_3D('',#262,#227,#228);
#191=AXIS2_PLACEMENT_3D('',#263,#229,#230);
#192=AXIS2_PLACEMENT_3D('',#284,#231,#232);
#193=AXIS2_PLACEMENT_3D('',#285,#233,#234);
#194=AXIS2_PLACEMENT_3D('',#286,#235,#236);
#195=AXIS2_PLACEMENT_3D('',#288,#237,#238);
#196=AXIS2_PLACEMENT_3D('',#289,#239,#240);
#197=DIRECTION('',(0.,0.,1.));
#198=DIRECTION('',(1.,0.,0.));
#199=DIRECTION('',(0.,0.,1.));
#200=DIRECTION('',(1.,0.,0.));
#201=DIRECTION('',(0.,0.,1.));
#202=DIRECTION('',(1.,0.,0.));
#203=DIRECTION('',(0.,0.,1.));
#204=DIRECTION('',(1.,0.,0.));
#205=DIRECTION('',(0.,-1.70151594180431E-7,-0.999999999999986));
#206=DIRECTION('',(0.,0.999999999999986,-1.70151594421959E-7));
#207=DIRECTION('',(0.,0.,-1.));
#208=DIRECTION('',(1.,0.,0.));
#209=DIRECTION('',(0.,-1.70151594180431E-7,-0.999999999999986));
#210=DIRECTION('',(0.,-0.999999999999986,1.70151594115636E-7));
#211=DIRECTION('',(0.,1.70151594180431E-7,0.999999999999986));
#212=DIRECTION('',(0.,0.999999999999986,-1.70151594182377E-7));
#213=DIRECTION('',(0.,0.,1.));
#214=DIRECTION('',(1.,0.,1.51532117813576E-17));
#215=DIRECTION('',(0.,0.,-1.));
#216=DIRECTION('',(1.,0.,0.));
#217=DIRECTION('',(0.,-3.12500004392054E-8,1.));
#218=DIRECTION('',(0.,-1.,-3.12500000741656E-8));
#219=DIRECTION('',(0.,-3.12500004392054E-8,1.));
#220=DIRECTION('',(0.,1.,3.12500004392054E-8));
#221=DIRECTION('',(0.,-3.12500004392054E-8,1.));
#222=DIRECTION('',(0.,-1.,-3.12500006442893E-8));
#223=DIRECTION('',(0.,-3.12500004392054E-8,1.));
#224=DIRECTION('',(0.,1.,3.12500004415184E-8));
#225=DIRECTION('',(0.,3.12500004392054E-8,-1.));
#226=DIRECTION('',(0.,-0.999999999999999,-3.12500004518374E-8));
#227=DIRECTION('',(0.,0.,1.));
#228=DIRECTION('',(1.,0.,0.));
#229=DIRECTION('',(0.,0.,1.));
#230=DIRECTION('',(1.,0.,0.));
#231=DIRECTION('',(0.,-3.12500004392054E-8,1.));
#232=DIRECTION('',(0.,1.,3.12500004392054E-8));
#233=DIRECTION('',(0.,0.,1.));
#234=DIRECTION('',(1.,0.,0.));
#235=DIRECTION('',(0.,0.,-1.));
#236=DIRECTION('',(-1.,0.,0.));
#237=DIRECTION('',(0.,0.,1.));
#238=DIRECTION('',(1.,0.,-6.88895669006543E-18));
#239=DIRECTION('',(0.,4.42997784001625E-8,0.999999999999999));
#240=DIRECTION('',(0.,0.999999999999999,-4.42997784011467E-8));
#241=CARTESIAN_POINT('',(0.,0.,0.));
#242=CARTESIAN_POINT('',(0.,0.,0.));
#243=CARTESIAN_POINT('',(0.,0.,-75.));
#244=CARTESIAN_POINT('',(0.,0.,48.00000016875));
#245=CARTESIAN_POINT('',(0.,-1.49999983059926E-6,-33.8602134851507));
#246=CARTESIAN_POINT('',(0.,7.24999949999999,-33.8602147187499));
#247=CARTESIAN_POINT('',(0.,-8.05100925071704E-6,-72.3612304851496));
#248=CARTESIAN_POINT('',(7.25000427550463,-8.05100925071704E-6,-72.3612304851496));
#249=CARTESIAN_POINT('',(0.,-1.50000002108186E-6,-33.8602146046383));
#250=CARTESIAN_POINT('',(0.,7.24999949999989,-33.8602153355495));
#251=CARTESIAN_POINT('',(-5.17213037131275E-15,0.,-75.));
#252=CARTESIAN_POINT('',(0.,0.,-75.));
#253=CARTESIAN_POINT('',(0.,-1.86907699177527E-15,0.));
#254=CARTESIAN_POINT('',(9.00000222187486,-1.86907699177527E-15,0.));
#255=CARTESIAN_POINT('',(0.,-1.44374967841036E-6,46.199989));
#256=CARTESIAN_POINT('',(0.,-9.00000438749937,46.1999887187499));
#257=CARTESIAN_POINT('',(0.,-1.06581410364015E-14,2.8125004547519E-7));
#258=CARTESIAN_POINT('',(0.,-1.50000002470875E-6,48.0000000562499));
#259=CARTESIAN_POINT('',(0.,-7.20000550000003,47.9999998312498));
#260=CARTESIAN_POINT('',(0.,-1.50000002822437E-6,48.00000016875));
#261=CARTESIAN_POINT('',(0.,-1.50000002470875E-6,48.0000000562499));
#262=CARTESIAN_POINT('',(0.,0.,0.));
#263=CARTESIAN_POINT('',(0.,-1.86907699177527E-15,0.));
#264=CARTESIAN_POINT('',(9.00000222187486,-1.86907699177527E-15,0.));
#265=CARTESIAN_POINT('',(-7.66275153681831,-5.28562938771047,-32.1090909264268));
#266=CARTESIAN_POINT('',(-4.05149523060034,-8.38099154777245,-32.1090912715283));
#267=CARTESIAN_POINT('',(-1.64295031728868,-9.15415771438036,-32.1090913577285));
#268=CARTESIAN_POINT('',(3.0325606492708,-8.79212521748046,-32.1090913173656));
#269=CARTESIAN_POINT('',(5.30027512972312,-7.64531016191227,-32.1090911895073));
#270=CARTESIAN_POINT('',(8.36519903727688,-4.07027470372562,-32.109090790927));
#271=CARTESIAN_POINT('',(9.15530626557694,-1.66615534856939,-32.109090522892));
#272=CARTESIAN_POINT('',(8.7913581131025,3.05085864232595,-32.1090899969927));
#273=CARTESIAN_POINT('',(7.63818907647499,5.30634836803888,-32.1090897455285));
#274=CARTESIAN_POINT('',(4.07754654651567,8.35900027862698,-32.1090894051888));
#275=CARTESIAN_POINT('',(1.66275382844381,9.15275724098868,-32.109089316693));
#276=CARTESIAN_POINT('',(-3.03009283668795,8.79524030882933,-32.1090893565525));
#277=CARTESIAN_POINT('',(-5.28921791557086,7.65697311932375,-32.1090894834577));
#278=CARTESIAN_POINT('',(-8.37227524119818,4.06325775482299,-32.1090898841205));
#279=CARTESIAN_POINT('',(-9.15218150436104,1.65486440677241,-32.109090152632));
#280=CARTESIAN_POINT('',(-8.79579869896655,-3.02240274523499,-32.1090906740999));
#281=CARTESIAN_POINT('',(-7.66275153681831,-5.28562938771047,-32.1090909264268));
#282=CARTESIAN_POINT('',(-4.05149523060034,-8.38099154777245,-32.1090912715283));
#283=CARTESIAN_POINT('',(-5.85712338370932,-6.83331046774146,-32.1090910989775));
#284=CARTESIAN_POINT('',(0.,-1.06581410364015E-14,2.8125004547519E-7));
#285=CARTESIAN_POINT('',(0.,0.,0.));
#286=CARTESIAN_POINT('',(0.,0.,-33.8602135068522));
#287=CARTESIAN_POINT('',(-7.24887905215521,0.,-33.8602135068522));
#288=CARTESIAN_POINT('',(0.,0.,-33.8602135068522));
#289=CARTESIAN_POINT('',(0.,-1.50000002462604E-6,-33.8602145581632));
#290=MECHANICAL_DESIGN_GEOMETRIC_PRESENTATION_REPRESENTATION('',(#154,#155,
#156,#157,#158,#159),#291);
#291=(
GEOMETRIC_REPRESENTATION_CONTEXT(3)
GLOBAL_UNCERTAINTY_ASSIGNED_CONTEXT((#292))
GLOBAL_UNIT_ASSIGNED_CONTEXT((#298,#294,#293))
REPRESENTATION_CONTEXT('SD203A-C45-14.5-38','TOP_LEVEL_ASSEMBLY_PART')
);
#292=UNCERTAINTY_MEASURE_WITH_UNIT(LENGTH_MEASURE(0.0508),#298,
'DISTANCE_ACCURACY_VALUE','Maximum Tolerance applied to model');
#293=(
NAMED_UNIT(*)
SI_UNIT($,.STERADIAN.)
SOLID_ANGLE_UNIT()
);
#294=(
CONVERSION_BASED_UNIT('DEGREE',#296)
NAMED_UNIT(#295)
PLANE_ANGLE_UNIT()
);
#295=DIMENSIONAL_EXPONENTS(0.,0.,0.,0.,0.,0.,0.);
#296=PLANE_ANGLE_MEASURE_WITH_UNIT(PLANE_ANGLE_MEASURE(0.0174532925),#297);
#297=(
NAMED_UNIT(*)
PLANE_ANGLE_UNIT()
SI_UNIT($,.RADIAN.)
);
#298=(
LENGTH_UNIT()
NAMED_UNIT(*)
SI_UNIT(.MILLI.,.METRE.)
);
ENDSEC;
END-ISO-10303-21;
