ISO-10303-21;
HEADER;
/* Generated by software containing ST-Developer
 * from STEP Tools, Inc. (www.steptools.com) 
 */
/* OPTION: using custom schema-name function */

FILE_DESCRIPTION(
/* description */ (''),
/* implementation_level */ '2;1');

FILE_NAME(
/* name */ 'SD203A-C45-14.25-38.5-18R5.stp',
/* time_stamp */ '2017-12-20T17:09:29+06:00',
/* author */ (''),
/* organization */ (''),
/* preprocessor_version */ 'ST-DEVELOPER v16',
/* originating_system */ 'SIEMENS PLM Software NX 11.0',
/* authorisation */ '');

FILE_SCHEMA (('AUTOMOTIVE_DESIGN { 1 0 10303 214 3 1 1 1 }'));
ENDSEC;

DATA;
#10=CONSTRUCTIVE_GEOMETRY_REPRESENTATION_RELATIONSHIP(
'supplemental geometry','',#32,#11);
#11=CONSTRUCTIVE_GEOMETRY_REPRESENTATION('supplemental geometry',(#176,
#177,#178),#291);
#12=PROPERTY_DEFINITION_REPRESENTATION(#16,#14);
#13=PROPERTY_DEFINITION_REPRESENTATION(#17,#15);
#14=REPRESENTATION('',(#18),#291);
#15=REPRESENTATION('',(#19),#291);
#16=PROPERTY_DEFINITION('pmi validation property','',#23);
#17=PROPERTY_DEFINITION('pmi validation property','',#23);
#18=VALUE_REPRESENTATION_ITEM('number of annotations',COUNT_MEASURE(0.));
#19=VALUE_REPRESENTATION_ITEM('number of views',COUNT_MEASURE(0.));
#20=SHAPE_REPRESENTATION_RELATIONSHIP('None',
'relationship between SD203A-C45-14.25-38.5-18R5-None and SD203A-C45-1
4.25-38.5-18R5-None',#32,#21);
#21=ADVANCED_BREP_SHAPE_REPRESENTATION(
'SD203A-C45-14.25-38.5-18R5-None',(#48,#49,#50),#291);
#22=SHAPE_DEFINITION_REPRESENTATION(#23,#32);
#23=PRODUCT_DEFINITION_SHAPE('','',#24);
#24=PRODUCT_DEFINITION(' ','',#26,#25);
#25=PRODUCT_DEFINITION_CONTEXT('part definition',#31,'design');
#26=PRODUCT_DEFINITION_FORMATION_WITH_SPECIFIED_SOURCE(' ',' ',#28,
 .NOT_KNOWN.);
#27=PRODUCT_RELATED_PRODUCT_CATEGORY('part','',(#28));
#28=PRODUCT('SD203A-C45-14.25-38.5-18R5','SD203A-C45-14.25-38.5-18R5',
' ',(#29));
#29=PRODUCT_CONTEXT(' ',#31,'mechanical');
#30=APPLICATION_PROTOCOL_DEFINITION('international standard',
'automotive_design',2010,#31);
#31=APPLICATION_CONTEXT(
'core data for automotive mechanical design processes');
#32=SHAPE_REPRESENTATION('SD203A-C45-14.25-38.5-18R5-None',(#175),#291);
#33=SURFACE_STYLE_USAGE(.BOTH.,#36);
#34=SURFACE_STYLE_USAGE(.BOTH.,#37);
#35=SURFACE_STYLE_USAGE(.BOTH.,#38);
#36=SURFACE_SIDE_STYLE('',(#39));
#37=SURFACE_SIDE_STYLE('',(#40));
#38=SURFACE_SIDE_STYLE('',(#41));
#39=SURFACE_STYLE_FILL_AREA(#42);
#40=SURFACE_STYLE_FILL_AREA(#43);
#41=SURFACE_STYLE_FILL_AREA(#44);
#42=FILL_AREA_STYLE('',(#45));
#43=FILL_AREA_STYLE('',(#46));
#44=FILL_AREA_STYLE('',(#47));
#45=FILL_AREA_STYLE_COLOUR('',#170);
#46=FILL_AREA_STYLE_COLOUR('',#171);
#47=FILL_AREA_STYLE_COLOUR('',#171);
#48=MANIFOLD_SOLID_BREP('CUT',#51);
#49=MANIFOLD_SOLID_BREP('NOCUT',#52);
#50=MANIFOLD_SOLID_BREP('NOCUT',#53);
#51=CLOSED_SHELL('',(#68,#69,#70));
#52=CLOSED_SHELL('',(#71,#72,#73,#74));
#53=CLOSED_SHELL('',(#75,#76,#77,#78));
#54=CONICAL_SURFACE('',#182,3.85185988877447E-31,70.0001153038718);
#55=CONICAL_SURFACE('',#188,7.13214235157875,44.9999999999999);
#56=CONICAL_SURFACE('',#193,7.200004,44.9998090145999);
#57=VERTEX_LOOP('',#129);
#58=PLANE('',#181);
#59=PLANE('',#186);
#60=PLANE('',#189);
#61=PLANE('',#191);
#62=PLANE('',#196);
#63=FACE_OUTER_BOUND('',#97,.T.);
#64=FACE_OUTER_BOUND('',#101,.T.);
#65=FACE_OUTER_BOUND('',#104,.T.);
#66=FACE_OUTER_BOUND('',#105,.T.);
#67=FACE_OUTER_BOUND('',#110,.T.);
#68=ADVANCED_FACE('',(#83,#84),#79,.T.);
#69=ADVANCED_FACE('',(#63),#58,.T.);
#70=ADVANCED_FACE('',(#85,#86),#54,.T.);
#71=ADVANCED_FACE('',(#87,#88),#80,.T.);
#72=ADVANCED_FACE('',(#64),#59,.T.);
#73=ADVANCED_FACE('',(#89,#90),#55,.T.);
#74=ADVANCED_FACE('',(#65),#60,.T.);
#75=ADVANCED_FACE('',(#66),#61,.T.);
#76=ADVANCED_FACE('',(#91,#92),#56,.T.);
#77=ADVANCED_FACE('',(#93,#94),#81,.T.);
#78=ADVANCED_FACE('',(#67),#62,.F.);
#79=CYLINDRICAL_SURFACE('',#180,7.12500472086926);
#80=CYLINDRICAL_SURFACE('',#185,9.00000300000003);
#81=CYLINDRICAL_SURFACE('',#195,9.00000300000003);
#82=B_SPLINE_CURVE_WITH_KNOTS('',3,(#247,#248,#249,#250,#251,#252,#253,
#254,#255,#256,#257,#258,#259,#260,#261,#262,#263,#264),.UNSPECIFIED.,.T.,
 .F.,(2,2,2,2,2,2,2,2,2,2,2),(-0.125,0.,0.125,0.25,0.375,0.5,0.625,0.75,
0.875,1.,1.125),.UNSPECIFIED.);
#83=FACE_BOUND('',#95,.T.);
#84=FACE_BOUND('',#96,.T.);
#85=FACE_BOUND('',#57,.T.);
#86=FACE_BOUND('',#98,.T.);
#87=FACE_BOUND('',#99,.T.);
#88=FACE_BOUND('',#100,.T.);
#89=FACE_BOUND('',#102,.T.);
#90=FACE_BOUND('',#103,.T.);
#91=FACE_BOUND('',#106,.T.);
#92=FACE_BOUND('',#107,.T.);
#93=FACE_BOUND('',#108,.T.);
#94=FACE_BOUND('',#109,.T.);
#95=EDGE_LOOP('',(#111));
#96=EDGE_LOOP('',(#112));
#97=EDGE_LOOP('',(#113));
#98=EDGE_LOOP('',(#114));
#99=EDGE_LOOP('',(#115));
#100=EDGE_LOOP('',(#116));
#101=EDGE_LOOP('',(#117));
#102=EDGE_LOOP('',(#118));
#103=EDGE_LOOP('',(#119));
#104=EDGE_LOOP('',(#120));
#105=EDGE_LOOP('',(#121));
#106=EDGE_LOOP('',(#122));
#107=EDGE_LOOP('',(#123));
#108=EDGE_LOOP('',(#124));
#109=EDGE_LOOP('',(#125));
#110=EDGE_LOOP('',(#126));
#111=ORIENTED_EDGE('',*,*,#136,.T.);
#112=ORIENTED_EDGE('',*,*,#137,.F.);
#113=ORIENTED_EDGE('',*,*,#136,.F.);
#114=ORIENTED_EDGE('',*,*,#137,.T.);
#115=ORIENTED_EDGE('',*,*,#138,.F.);
#116=ORIENTED_EDGE('',*,*,#139,.F.);
#117=ORIENTED_EDGE('',*,*,#138,.T.);
#118=ORIENTED_EDGE('',*,*,#140,.F.);
#119=ORIENTED_EDGE('',*,*,#139,.T.);
#120=ORIENTED_EDGE('',*,*,#140,.T.);
#121=ORIENTED_EDGE('',*,*,#141,.T.);
#122=ORIENTED_EDGE('',*,*,#142,.F.);
#123=ORIENTED_EDGE('',*,*,#141,.F.);
#124=ORIENTED_EDGE('',*,*,#143,.F.);
#125=ORIENTED_EDGE('',*,*,#142,.T.);
#126=ORIENTED_EDGE('',*,*,#143,.T.);
#127=VERTEX_POINT('',#246);
#128=VERTEX_POINT('',#265);
#129=VERTEX_POINT('',#268);
#130=VERTEX_POINT('',#271);
#131=VERTEX_POINT('',#273);
#132=VERTEX_POINT('',#277);
#133=VERTEX_POINT('',#281);
#134=VERTEX_POINT('',#284);
#135=VERTEX_POINT('',#287);
#136=EDGE_CURVE('',#127,#127,#144,.T.);
#137=EDGE_CURVE('',#128,#128,#82,.T.);
#138=EDGE_CURVE('',#130,#130,#145,.T.);
#139=EDGE_CURVE('',#131,#131,#146,.T.);
#140=EDGE_CURVE('',#132,#132,#147,.T.);
#141=EDGE_CURVE('',#133,#133,#148,.T.);
#142=EDGE_CURVE('',#134,#134,#149,.T.);
#143=EDGE_CURVE('',#135,#135,#150,.T.);
#144=CIRCLE('',#179,7.12500799999992);
#145=CIRCLE('',#183,9.00000300000003);
#146=CIRCLE('',#184,9.00000300000003);
#147=CIRCLE('',#187,7.13214235157875);
#148=CIRCLE('',#190,7.200004);
#149=CIRCLE('',#192,9.00000300000003);
#150=CIRCLE('',#194,9.00000300000003);
#151=PRESENTATION_LAYER_ASSIGNMENT('1','Layer 1',(#176,#177,#178,#50));
#152=PRESENTATION_LAYER_ASSIGNMENT('3','Layer 3',(#48));
#153=PRESENTATION_LAYER_ASSIGNMENT('2','Layer 2',(#49));
#154=STYLED_ITEM('',(#160),#176);
#155=STYLED_ITEM('',(#161),#177);
#156=STYLED_ITEM('',(#162),#178);
#157=STYLED_ITEM('',(#163),#48);
#158=STYLED_ITEM('',(#164),#49);
#159=STYLED_ITEM('',(#165),#50);
#160=PRESENTATION_STYLE_ASSIGNMENT((#166));
#161=PRESENTATION_STYLE_ASSIGNMENT((#167));
#162=PRESENTATION_STYLE_ASSIGNMENT((#168));
#163=PRESENTATION_STYLE_ASSIGNMENT((#33));
#164=PRESENTATION_STYLE_ASSIGNMENT((#34));
#165=PRESENTATION_STYLE_ASSIGNMENT((#35));
#166=CURVE_STYLE('',#172,POSITIVE_LENGTH_MEASURE(0.18),#169);
#167=CURVE_STYLE('',#173,POSITIVE_LENGTH_MEASURE(0.18),#169);
#168=CURVE_STYLE('',#174,POSITIVE_LENGTH_MEASURE(0.18),#169);
#169=COLOUR_RGB('Strong Stone',0.576470588235294,0.54508278019379,0.392156862745098);
#170=COLOUR_RGB('Light Gray',0.8,0.8,0.8);
#171=COLOUR_RGB('Medium Gray',0.490196078431373,0.490196078431373,0.490196078431373);
#172=DRAUGHTING_PRE_DEFINED_CURVE_FONT('continuous');
#173=DRAUGHTING_PRE_DEFINED_CURVE_FONT('continuous');
#174=DRAUGHTING_PRE_DEFINED_CURVE_FONT('continuous');
#175=AXIS2_PLACEMENT_3D('',#241,#197,#198);
#176=AXIS2_PLACEMENT_3D('MCS',#242,#199,#200);
#177=AXIS2_PLACEMENT_3D('CIP',#243,#201,#202);
#178=AXIS2_PLACEMENT_3D('PCS',#244,#203,#204);
#179=AXIS2_PLACEMENT_3D('',#245,#205,#206);
#180=AXIS2_PLACEMENT_3D('',#266,#207,#208);
#181=AXIS2_PLACEMENT_3D('',#267,#209,#210);
#182=AXIS2_PLACEMENT_3D('',#269,#211,#212);
#183=AXIS2_PLACEMENT_3D('',#270,#213,#214);
#184=AXIS2_PLACEMENT_3D('',#272,#215,#216);
#185=AXIS2_PLACEMENT_3D('',#274,#217,#218);
#186=AXIS2_PLACEMENT_3D('',#275,#219,#220);
#187=AXIS2_PLACEMENT_3D('',#276,#221,#222);
#188=AXIS2_PLACEMENT_3D('',#278,#223,#224);
#189=AXIS2_PLACEMENT_3D('',#279,#225,#226);
#190=AXIS2_PLACEMENT_3D('',#280,#227,#228);
#191=AXIS2_PLACEMENT_3D('',#282,#229,#230);
#192=AXIS2_PLACEMENT_3D('',#283,#231,#232);
#193=AXIS2_PLACEMENT_3D('',#285,#233,#234);
#194=AXIS2_PLACEMENT_3D('',#286,#235,#236);
#195=AXIS2_PLACEMENT_3D('',#288,#237,#238);
#196=AXIS2_PLACEMENT_3D('',#289,#239,#240);
#197=DIRECTION('',(0.,0.,1.));
#198=DIRECTION('',(1.,0.,0.));
#199=DIRECTION('',(0.,0.,1.));
#200=DIRECTION('',(1.,0.,0.));
#201=DIRECTION('',(0.,0.,1.));
#202=DIRECTION('',(1.,0.,0.));
#203=DIRECTION('',(0.,0.,1.));
#204=DIRECTION('',(1.,0.,0.));
#205=DIRECTION('',(0.,1.70339950534145E-7,-0.999999999999986));
#206=DIRECTION('',(0.,0.999999999999986,1.70339950343246E-7));
#207=DIRECTION('',(0.,1.70339950534145E-7,-0.999999999999986));
#208=DIRECTION('',(0.,-0.999999999999986,-1.7033995082822E-7));
#209=DIRECTION('',(0.,-1.70339950534145E-7,0.999999999999986));
#210=DIRECTION('',(0.,0.999999999999986,1.70339950533727E-7));
#211=DIRECTION('',(0.,0.,1.));
#212=DIRECTION('',(1.,0.,1.51532101549969E-17));
#213=DIRECTION('',(0.,0.,1.));
#214=DIRECTION('',(1.,0.,0.));
#215=DIRECTION('',(0.,0.,-1.));
#216=DIRECTION('',(1.,0.,0.));
#217=DIRECTION('',(0.,0.,1.));
#218=DIRECTION('',(1.,0.,0.));
#219=DIRECTION('',(0.,0.,1.));
#220=DIRECTION('',(1.,0.,0.));
#221=DIRECTION('',(0.,0.,-1.));
#222=DIRECTION('',(-1.,0.,0.));
#223=DIRECTION('',(0.,0.,1.));
#224=DIRECTION('',(1.,0.,-2.75590207565234E-17));
#225=DIRECTION('',(0.,-4.42403413416905E-8,-0.999999999999999));
#226=DIRECTION('',(0.,-0.999999999999999,4.42403413417058E-8));
#227=DIRECTION('',(0.,0.,1.));
#228=DIRECTION('',(1.,0.,0.));
#229=DIRECTION('',(0.,0.,1.));
#230=DIRECTION('',(-1.,0.,0.));
#231=DIRECTION('',(0.,0.,-1.));
#232=DIRECTION('',(1.,0.,0.));
#233=DIRECTION('',(0.,0.,-1.));
#234=DIRECTION('',(1.,0.,4.13360194895522E-17));
#235=DIRECTION('',(0.,0.,-1.));
#236=DIRECTION('',(1.,0.,0.));
#237=DIRECTION('',(0.,0.,1.));
#238=DIRECTION('',(1.,0.,0.));
#239=DIRECTION('',(0.,0.,1.));
#240=DIRECTION('',(1.,0.,0.));
#241=CARTESIAN_POINT('',(0.,0.,0.));
#242=CARTESIAN_POINT('',(0.,0.,0.));
#243=CARTESIAN_POINT('',(0.,0.,-75.));
#244=CARTESIAN_POINT('',(0.,0.,48.));
#245=CARTESIAN_POINT('',(0.,2.06737085704911E-13,-33.9057072136735));
#246=CARTESIAN_POINT('',(0.,7.12500800000003,-33.905706));
#247=CARTESIAN_POINT('',(-1.88285008456351,7.1250112791309,-72.4067242136724));
#248=CARTESIAN_POINT('',(1.88285008456351,7.1250112791309,-72.4067242136723));
#249=CARTESIAN_POINT('',(3.72402437275562,6.35249640221826,-72.4067244724776));
#250=CARTESIAN_POINT('',(6.35315809957373,3.72289077728743,-72.4067253534394));
#251=CARTESIAN_POINT('',(7.12401680821301,1.86243778675011,-72.4067259767224));
#252=CARTESIAN_POINT('',(7.12599062469024,-1.85485817572168,-72.4067272220794));
#253=CARTESIAN_POINT('',(6.37010399302435,-3.70480099659398,-72.4067278418419));
#254=CARTESIAN_POINT('',(3.7113451071106,-6.36629074836663,-72.4067287334866));
#255=CARTESIAN_POINT('',(1.86242432619066,-7.12434027451231,-72.4067289874463));
#256=CARTESIAN_POINT('',(-1.85738720656796,-7.12565516043653,-72.4067289878869));
#257=CARTESIAN_POINT('',(-3.71808731199235,-6.35562955847873,-72.406728729915));
#258=CARTESIAN_POINT('',(-6.34840767405253,-3.73040946572924,-72.4067278504211));
#259=CARTESIAN_POINT('',(-7.12308257004584,-1.88647127782905,-72.4067272326704));
#260=CARTESIAN_POINT('',(-7.12691944607701,1.87193688145314,-72.40672597354));
#261=CARTESIAN_POINT('',(-6.35677548488779,3.71740407047798,-72.4067253552776));
#262=CARTESIAN_POINT('',(-3.7275492669657,6.35083447999322,-72.4067244730344));
#263=CARTESIAN_POINT('',(-1.88285008456351,7.1250112791309,-72.4067242136724));
#264=CARTESIAN_POINT('',(1.88285008456351,7.1250112791309,-72.4067242136723));
#265=CARTESIAN_POINT('',(2.48240795079767E-16,7.1250112791309,-72.4067242136724));
#266=CARTESIAN_POINT('',(0.,0.,-33.905706));
#267=CARTESIAN_POINT('',(0.,7.12500799999994,-33.9057053931632));
#268=CARTESIAN_POINT('',(0.,-3.85185988877447E-31,-75.));
#269=CARTESIAN_POINT('',(0.,0.,-75.));
#270=CARTESIAN_POINT('',(0.,0.,0.));
#271=CARTESIAN_POINT('',(9.00000300000003,0.,0.));
#272=CARTESIAN_POINT('',(0.,0.,-32.0378448784439));
#273=CARTESIAN_POINT('',(9.00000300000003,0.,-32.0378448784439));
#274=CARTESIAN_POINT('',(0.,0.,-715.953282048887));
#275=CARTESIAN_POINT('',(0.,0.,0.));
#276=CARTESIAN_POINT('',(0.,0.,-33.9057055268652));
#277=CARTESIAN_POINT('',(-7.13214235157875,0.,-33.9057055268652));
#278=CARTESIAN_POINT('',(0.,0.,-33.9057055268652));
#279=CARTESIAN_POINT('',(0.,7.12500800000003,-33.9057061576064));
#280=CARTESIAN_POINT('',(0.,0.,48.));
#281=CARTESIAN_POINT('',(7.200004,0.,48.));
#282=CARTESIAN_POINT('',(0.,0.,48.));
#283=CARTESIAN_POINT('',(0.,0.,46.199989));
#284=CARTESIAN_POINT('',(9.00000300000003,0.,46.199989));
#285=CARTESIAN_POINT('',(0.,0.,48.));
#286=CARTESIAN_POINT('',(0.,0.,0.));
#287=CARTESIAN_POINT('',(9.00000300000003,0.,0.));
#288=CARTESIAN_POINT('',(0.,0.,-715.953282048887));
#289=CARTESIAN_POINT('',(0.,0.,0.));
#290=MECHANICAL_DESIGN_GEOMETRIC_PRESENTATION_REPRESENTATION('',(#154,#155,
#156,#157,#158,#159),#291);
#291=(
GEOMETRIC_REPRESENTATION_CONTEXT(3)
GLOBAL_UNCERTAINTY_ASSIGNED_CONTEXT((#292))
GLOBAL_UNIT_ASSIGNED_CONTEXT((#298,#294,#293))
REPRESENTATION_CONTEXT('SD203A-C45-14.25-38','TOP_LEVEL_ASSEMBLY_PART')
);
#292=UNCERTAINTY_MEASURE_WITH_UNIT(LENGTH_MEASURE(0.0508),#298,
'DISTANCE_ACCURACY_VALUE','Maximum Tolerance applied to model');
#293=(
NAMED_UNIT(*)
SI_UNIT($,.STERADIAN.)
SOLID_ANGLE_UNIT()
);
#294=(
CONVERSION_BASED_UNIT('DEGREE',#296)
NAMED_UNIT(#295)
PLANE_ANGLE_UNIT()
);
#295=DIMENSIONAL_EXPONENTS(0.,0.,0.,0.,0.,0.,0.);
#296=PLANE_ANGLE_MEASURE_WITH_UNIT(PLANE_ANGLE_MEASURE(0.0174532925),#297);
#297=(
NAMED_UNIT(*)
PLANE_ANGLE_UNIT()
SI_UNIT($,.RADIAN.)
);
#298=(
LENGTH_UNIT()
NAMED_UNIT(*)
SI_UNIT(.MILLI.,.METRE.)
);
ENDSEC;
END-ISO-10303-21;
