ISO-10303-21;
HEADER;
/* Generated by software containing ST-Developer
 * from STEP Tools, Inc. (www.steptools.com) 
 */
/* OPTION: using custom schema-name function */

FILE_DESCRIPTION(
/* description */ (''),
/* implementation_level */ '2;1');

FILE_NAME(
/* name */ 'SD203A-C45-14.0-38.5-18R1.stp',
/* time_stamp */ '2017-12-20T17:09:30+06:00',
/* author */ (''),
/* organization */ (''),
/* preprocessor_version */ 'ST-DEVELOPER v16',
/* originating_system */ 'SIEMENS PLM Software NX 11.0',
/* authorisation */ '');

FILE_SCHEMA (('AUTOMOTIVE_DESIGN { 1 0 10303 214 3 1 1 1 }'));
ENDSEC;

DATA;
#10=CONSTRUCTIVE_GEOMETRY_REPRESENTATION_RELATIONSHIP(
'supplemental geometry','',#32,#11);
#11=CONSTRUCTIVE_GEOMETRY_REPRESENTATION('supplemental geometry',(#176,
#177,#178),#277);
#12=PROPERTY_DEFINITION_REPRESENTATION(#16,#14);
#13=PROPERTY_DEFINITION_REPRESENTATION(#17,#15);
#14=REPRESENTATION('',(#18),#277);
#15=REPRESENTATION('',(#19),#277);
#16=PROPERTY_DEFINITION('pmi validation property','',#23);
#17=PROPERTY_DEFINITION('pmi validation property','',#23);
#18=VALUE_REPRESENTATION_ITEM('number of annotations',COUNT_MEASURE(0.));
#19=VALUE_REPRESENTATION_ITEM('number of views',COUNT_MEASURE(0.));
#20=SHAPE_REPRESENTATION_RELATIONSHIP('None',
'relationship between SD203A-C45-14.0-38.5-18R1-None and SD203A-C45-14.
0-38.5-18R1-None',#32,#21);
#21=ADVANCED_BREP_SHAPE_REPRESENTATION('SD203A-C45-14.0-38.5-18R1-None',
(#48,#49,#50),#277);
#22=SHAPE_DEFINITION_REPRESENTATION(#23,#32);
#23=PRODUCT_DEFINITION_SHAPE('','',#24);
#24=PRODUCT_DEFINITION(' ','',#26,#25);
#25=PRODUCT_DEFINITION_CONTEXT('part definition',#31,'design');
#26=PRODUCT_DEFINITION_FORMATION_WITH_SPECIFIED_SOURCE(' ',' ',#28,
 .NOT_KNOWN.);
#27=PRODUCT_RELATED_PRODUCT_CATEGORY('part','',(#28));
#28=PRODUCT('SD203A-C45-14.0-38.5-18R1','SD203A-C45-14.0-38.5-18R1',' ',
(#29));
#29=PRODUCT_CONTEXT(' ',#31,'mechanical');
#30=APPLICATION_PROTOCOL_DEFINITION('international standard',
'automotive_design',2010,#31);
#31=APPLICATION_CONTEXT(
'core data for automotive mechanical design processes');
#32=SHAPE_REPRESENTATION('SD203A-C45-14.0-38.5-18R1-None',(#175),#277);
#33=SURFACE_STYLE_USAGE(.BOTH.,#36);
#34=SURFACE_STYLE_USAGE(.BOTH.,#37);
#35=SURFACE_STYLE_USAGE(.BOTH.,#38);
#36=SURFACE_SIDE_STYLE('',(#39));
#37=SURFACE_SIDE_STYLE('',(#40));
#38=SURFACE_SIDE_STYLE('',(#41));
#39=SURFACE_STYLE_FILL_AREA(#42);
#40=SURFACE_STYLE_FILL_AREA(#43);
#41=SURFACE_STYLE_FILL_AREA(#44);
#42=FILL_AREA_STYLE('',(#45));
#43=FILL_AREA_STYLE('',(#46));
#44=FILL_AREA_STYLE('',(#47));
#45=FILL_AREA_STYLE_COLOUR('',#170);
#46=FILL_AREA_STYLE_COLOUR('',#171);
#47=FILL_AREA_STYLE_COLOUR('',#171);
#48=MANIFOLD_SOLID_BREP('CUT',#51);
#49=MANIFOLD_SOLID_BREP('NOCUT',#52);
#50=MANIFOLD_SOLID_BREP('NOCUT',#53);
#51=CLOSED_SHELL('',(#73,#74,#75));
#52=CLOSED_SHELL('',(#76,#77,#78,#79));
#53=CLOSED_SHELL('',(#80,#81,#82,#83));
#54=CONICAL_SURFACE('',#183,3.85185988877447E-31,70.0000565467579);
#55=CONICAL_SURFACE('',#189,7.02033778595221,44.9999999999999);
#56=CONICAL_SURFACE('',#194,7.20000399999999,44.9998090145996);
#57=VERTEX_LOOP('',#128);
#58=CYLINDRICAL_SURFACE('',#182,7.00000353925351);
#59=CYLINDRICAL_SURFACE('',#186,9.00000150000003);
#60=CYLINDRICAL_SURFACE('',#196,9.00000300000003);
#61=FACE_BOUND('',#95,.T.);
#62=FACE_BOUND('',#96,.T.);
#63=FACE_BOUND('',#97,.T.);
#64=FACE_BOUND('',#57,.T.);
#65=FACE_BOUND('',#98,.T.);
#66=FACE_BOUND('',#99,.T.);
#67=FACE_BOUND('',#101,.T.);
#68=FACE_BOUND('',#102,.T.);
#69=FACE_BOUND('',#105,.T.);
#70=FACE_BOUND('',#106,.T.);
#71=FACE_BOUND('',#107,.T.);
#72=FACE_BOUND('',#108,.T.);
#73=ADVANCED_FACE('',(#89),#84,.F.);
#74=ADVANCED_FACE('',(#61,#62),#58,.T.);
#75=ADVANCED_FACE('',(#63,#64),#54,.T.);
#76=ADVANCED_FACE('',(#65,#66),#59,.T.);
#77=ADVANCED_FACE('',(#90),#85,.T.);
#78=ADVANCED_FACE('',(#67,#68),#55,.T.);
#79=ADVANCED_FACE('',(#91),#86,.T.);
#80=ADVANCED_FACE('',(#92),#87,.T.);
#81=ADVANCED_FACE('',(#69,#70),#56,.T.);
#82=ADVANCED_FACE('',(#71,#72),#60,.T.);
#83=ADVANCED_FACE('',(#93),#88,.T.);
#84=PLANE('',#180);
#85=PLANE('',#187);
#86=PLANE('',#190);
#87=PLANE('',#192);
#88=PLANE('',#197);
#89=FACE_OUTER_BOUND('',#94,.T.);
#90=FACE_OUTER_BOUND('',#100,.T.);
#91=FACE_OUTER_BOUND('',#103,.T.);
#92=FACE_OUTER_BOUND('',#104,.T.);
#93=FACE_OUTER_BOUND('',#109,.T.);
#94=EDGE_LOOP('',(#110));
#95=EDGE_LOOP('',(#111));
#96=EDGE_LOOP('',(#112));
#97=EDGE_LOOP('',(#113));
#98=EDGE_LOOP('',(#114));
#99=EDGE_LOOP('',(#115));
#100=EDGE_LOOP('',(#116));
#101=EDGE_LOOP('',(#117));
#102=EDGE_LOOP('',(#118));
#103=EDGE_LOOP('',(#119));
#104=EDGE_LOOP('',(#120));
#105=EDGE_LOOP('',(#121));
#106=EDGE_LOOP('',(#122));
#107=EDGE_LOOP('',(#123));
#108=EDGE_LOOP('',(#124));
#109=EDGE_LOOP('',(#125));
#110=ORIENTED_EDGE('',*,*,#135,.F.);
#111=ORIENTED_EDGE('',*,*,#136,.F.);
#112=ORIENTED_EDGE('',*,*,#135,.T.);
#113=ORIENTED_EDGE('',*,*,#136,.T.);
#114=ORIENTED_EDGE('',*,*,#137,.F.);
#115=ORIENTED_EDGE('',*,*,#138,.T.);
#116=ORIENTED_EDGE('',*,*,#137,.T.);
#117=ORIENTED_EDGE('',*,*,#138,.F.);
#118=ORIENTED_EDGE('',*,*,#139,.F.);
#119=ORIENTED_EDGE('',*,*,#139,.T.);
#120=ORIENTED_EDGE('',*,*,#140,.T.);
#121=ORIENTED_EDGE('',*,*,#141,.T.);
#122=ORIENTED_EDGE('',*,*,#140,.F.);
#123=ORIENTED_EDGE('',*,*,#142,.T.);
#124=ORIENTED_EDGE('',*,*,#141,.F.);
#125=ORIENTED_EDGE('',*,*,#142,.F.);
#126=VERTEX_POINT('',#249);
#127=VERTEX_POINT('',#252);
#128=VERTEX_POINT('',#254);
#129=VERTEX_POINT('',#257);
#130=VERTEX_POINT('',#259);
#131=VERTEX_POINT('',#263);
#132=VERTEX_POINT('',#267);
#133=VERTEX_POINT('',#270);
#134=VERTEX_POINT('',#273);
#135=EDGE_CURVE('',#126,#126,#143,.T.);
#136=EDGE_CURVE('',#127,#127,#144,.T.);
#137=EDGE_CURVE('',#129,#129,#145,.T.);
#138=EDGE_CURVE('',#130,#130,#146,.T.);
#139=EDGE_CURVE('',#131,#131,#147,.T.);
#140=EDGE_CURVE('',#132,#132,#148,.T.);
#141=EDGE_CURVE('',#133,#133,#149,.T.);
#142=EDGE_CURVE('',#134,#134,#150,.T.);
#143=CIRCLE('',#179,7.00000313235909);
#144=CIRCLE('',#181,7.00000394614796);
#145=CIRCLE('',#184,9.00000150000001);
#146=CIRCLE('',#185,9.00000150000003);
#147=CIRCLE('',#188,7.02033778595221);
#148=CIRCLE('',#191,7.20000399999999);
#149=CIRCLE('',#193,9.00000300000003);
#150=CIRCLE('',#195,9.00000300000003);
#151=PRESENTATION_LAYER_ASSIGNMENT('1','Layer 1',(#176,#177,#178,#50));
#152=PRESENTATION_LAYER_ASSIGNMENT('3','Layer 3',(#48));
#153=PRESENTATION_LAYER_ASSIGNMENT('2','Layer 2',(#49));
#154=STYLED_ITEM('',(#160),#176);
#155=STYLED_ITEM('',(#161),#177);
#156=STYLED_ITEM('',(#162),#178);
#157=STYLED_ITEM('',(#163),#48);
#158=STYLED_ITEM('',(#164),#49);
#159=STYLED_ITEM('',(#165),#50);
#160=PRESENTATION_STYLE_ASSIGNMENT((#166));
#161=PRESENTATION_STYLE_ASSIGNMENT((#167));
#162=PRESENTATION_STYLE_ASSIGNMENT((#168));
#163=PRESENTATION_STYLE_ASSIGNMENT((#33));
#164=PRESENTATION_STYLE_ASSIGNMENT((#34));
#165=PRESENTATION_STYLE_ASSIGNMENT((#35));
#166=CURVE_STYLE('',#172,POSITIVE_LENGTH_MEASURE(0.18),#169);
#167=CURVE_STYLE('',#173,POSITIVE_LENGTH_MEASURE(0.18),#169);
#168=CURVE_STYLE('',#174,POSITIVE_LENGTH_MEASURE(0.18),#169);
#169=COLOUR_RGB('Strong Stone',0.576470588235294,0.54508278019379,0.392156862745098);
#170=COLOUR_RGB('Light Gray',0.8,0.8,0.8);
#171=COLOUR_RGB('Medium Gray',0.490196078431373,0.490196078431373,0.490196078431373);
#172=DRAUGHTING_PRE_DEFINED_CURVE_FONT('continuous');
#173=DRAUGHTING_PRE_DEFINED_CURVE_FONT('continuous');
#174=DRAUGHTING_PRE_DEFINED_CURVE_FONT('continuous');
#175=AXIS2_PLACEMENT_3D('',#244,#198,#199);
#176=AXIS2_PLACEMENT_3D('MCS',#245,#200,#201);
#177=AXIS2_PLACEMENT_3D('CIP',#246,#202,#203);
#178=AXIS2_PLACEMENT_3D('PCS',#247,#204,#205);
#179=AXIS2_PLACEMENT_3D('',#248,#206,#207);
#180=AXIS2_PLACEMENT_3D('',#250,#208,#209);
#181=AXIS2_PLACEMENT_3D('',#251,#210,#211);
#182=AXIS2_PLACEMENT_3D('',#253,#212,#213);
#183=AXIS2_PLACEMENT_3D('',#255,#214,#215);
#184=AXIS2_PLACEMENT_3D('',#256,#216,#217);
#185=AXIS2_PLACEMENT_3D('',#258,#218,#219);
#186=AXIS2_PLACEMENT_3D('',#260,#220,#221);
#187=AXIS2_PLACEMENT_3D('',#261,#222,#223);
#188=AXIS2_PLACEMENT_3D('',#262,#224,#225);
#189=AXIS2_PLACEMENT_3D('',#264,#226,#227);
#190=AXIS2_PLACEMENT_3D('',#265,#228,#229);
#191=AXIS2_PLACEMENT_3D('',#266,#230,#231);
#192=AXIS2_PLACEMENT_3D('',#268,#232,#233);
#193=AXIS2_PLACEMENT_3D('',#269,#234,#235);
#194=AXIS2_PLACEMENT_3D('',#271,#236,#237);
#195=AXIS2_PLACEMENT_3D('',#272,#238,#239);
#196=AXIS2_PLACEMENT_3D('',#274,#240,#241);
#197=AXIS2_PLACEMENT_3D('',#275,#242,#243);
#198=DIRECTION('',(0.,0.,1.));
#199=DIRECTION('',(1.,0.,0.));
#200=DIRECTION('',(0.,0.,1.));
#201=DIRECTION('',(1.,0.,0.));
#202=DIRECTION('',(0.,0.,1.));
#203=DIRECTION('',(1.,0.,0.));
#204=DIRECTION('',(0.,0.,1.));
#205=DIRECTION('',(1.,0.,0.));
#206=DIRECTION('',(0.,-2.11368275753629E-8,-1.));
#207=DIRECTION('',(0.,1.,-2.11368278617902E-8));
#208=DIRECTION('',(0.,-2.11368275753629E-8,-1.));
#209=DIRECTION('',(0.,-1.,2.11368275729318E-8));
#210=DIRECTION('',(0.,0.,-1.));
#211=DIRECTION('',(1.,0.,0.));
#212=DIRECTION('',(0.,-2.11368275753629E-8,-1.));
#213=DIRECTION('',(0.,-1.,2.11368276244241E-8));
#214=DIRECTION('',(0.,0.,1.));
#215=DIRECTION('',(1.,0.,-1.01021723374614E-17));
#216=DIRECTION('',(0.,1.15105872969184E-15,1.));
#217=DIRECTION('',(0.,-1.,1.15105872969184E-15));
#218=DIRECTION('',(0.,0.,1.));
#219=DIRECTION('',(1.,0.,0.));
#220=DIRECTION('',(0.,1.15105872969184E-15,1.));
#221=DIRECTION('',(0.,1.,-7.70988083047231E-16));
#222=DIRECTION('',(0.,1.15105872969184E-15,1.));
#223=DIRECTION('',(0.,1.,-1.15105872969184E-15));
#224=DIRECTION('',(0.,0.,-1.));
#225=DIRECTION('',(-1.,0.,0.));
#226=DIRECTION('',(0.,0.,1.));
#227=DIRECTION('',(1.,0.,-1.37810402502162E-17));
#228=DIRECTION('',(0.,-1.15105872969184E-15,-1.));
#229=DIRECTION('',(0.,-1.,1.1518563880486E-15));
#230=DIRECTION('',(0.,0.,1.));
#231=DIRECTION('',(1.,0.,0.));
#232=DIRECTION('',(0.,0.,1.));
#233=DIRECTION('',(-1.,0.,0.));
#234=DIRECTION('',(0.,0.,1.));
#235=DIRECTION('',(1.,0.,0.));
#236=DIRECTION('',(0.,0.,-1.));
#237=DIRECTION('',(1.,0.,4.13360194895526E-17));
#238=DIRECTION('',(0.,0.,1.));
#239=DIRECTION('',(1.,0.,0.));
#240=DIRECTION('',(0.,0.,1.));
#241=DIRECTION('',(-1.,0.,0.));
#242=DIRECTION('',(0.,0.,-1.));
#243=DIRECTION('',(1.,0.,0.));
#244=CARTESIAN_POINT('',(0.,0.,0.));
#245=CARTESIAN_POINT('',(0.,0.,0.));
#246=CARTESIAN_POINT('',(0.,0.,-74.9999987261015));
#247=CARTESIAN_POINT('',(0.,0.,48.));
#248=CARTESIAN_POINT('',(0.,-6.32359125488785E-7,-33.9512218520421));
#249=CARTESIAN_POINT('',(0.,7.00000249999996,-33.951222));
#250=CARTESIAN_POINT('',(0.,-1.50000001596547E-6,-33.951221926021));
#251=CARTESIAN_POINT('',(0.,-1.03963633142127E-6,-72.4522138520421));
#252=CARTESIAN_POINT('',(7.00000394614796,-1.03963633142127E-6,-72.4522138520421));
#253=CARTESIAN_POINT('',(0.,-6.32359128616145E-7,-33.951222));
#254=CARTESIAN_POINT('',(0.,-3.85185988877447E-31,-74.9999987261015));
#255=CARTESIAN_POINT('',(0.,0.,-74.9999987261015));
#256=CARTESIAN_POINT('',(0.,1.84889274661175E-29,0.));
#257=CARTESIAN_POINT('',(0.,-9.00000150000001,1.03595302938146E-14));
#258=CARTESIAN_POINT('',(0.,0.,-31.9715582859522));
#259=CARTESIAN_POINT('',(9.00000150000003,0.,-31.9715582859522));
#260=CARTESIAN_POINT('',(0.,-3.90798504668055E-14,-33.951222));
#261=CARTESIAN_POINT('',(0.,-1.50000002818729E-6,-3.70201818679987E-15));
#262=CARTESIAN_POINT('',(0.,0.,-33.951222));
#263=CARTESIAN_POINT('',(-7.02033778595221,0.,-33.951222));
#264=CARTESIAN_POINT('',(0.,0.,-33.951222));
#265=CARTESIAN_POINT('',(0.,7.00000249999996,-33.951222));
#266=CARTESIAN_POINT('',(0.,-1.50000001752915E-6,48.));
#267=CARTESIAN_POINT('',(7.20000399999999,-1.50000001752915E-6,48.));
#268=CARTESIAN_POINT('',(0.,-1.50000001752915E-6,48.));
#269=CARTESIAN_POINT('',(0.,-1.50000001752915E-6,46.199989));
#270=CARTESIAN_POINT('',(9.00000300000003,-1.50000001752915E-6,46.199989));
#271=CARTESIAN_POINT('',(0.,-1.50000001752915E-6,48.));
#272=CARTESIAN_POINT('',(0.,-1.50000001752915E-6,-6.93889390390723E-15));
#273=CARTESIAN_POINT('',(9.00000300000003,-1.50000001752915E-6,-6.93889390390723E-15));
#274=CARTESIAN_POINT('',(0.,-1.50000001752915E-6,-7.105427357601E-15));
#275=CARTESIAN_POINT('',(0.,9.00000150000001,-7.91033905045424E-15));
#276=MECHANICAL_DESIGN_GEOMETRIC_PRESENTATION_REPRESENTATION('',(#154,#155,
#156,#157,#158,#159),#277);
#277=(
GEOMETRIC_REPRESENTATION_CONTEXT(3)
GLOBAL_UNCERTAINTY_ASSIGNED_CONTEXT((#278))
GLOBAL_UNIT_ASSIGNED_CONTEXT((#284,#280,#279))
REPRESENTATION_CONTEXT('SD203A-C45-14.0-38','TOP_LEVEL_ASSEMBLY_PART')
);
#278=UNCERTAINTY_MEASURE_WITH_UNIT(LENGTH_MEASURE(2.E-5),#284,
'DISTANCE_ACCURACY_VALUE','Maximum Tolerance applied to model');
#279=(
NAMED_UNIT(*)
SI_UNIT($,.STERADIAN.)
SOLID_ANGLE_UNIT()
);
#280=(
CONVERSION_BASED_UNIT('DEGREE',#282)
NAMED_UNIT(#281)
PLANE_ANGLE_UNIT()
);
#281=DIMENSIONAL_EXPONENTS(0.,0.,0.,0.,0.,0.,0.);
#282=PLANE_ANGLE_MEASURE_WITH_UNIT(PLANE_ANGLE_MEASURE(0.0174532925),#283);
#283=(
NAMED_UNIT(*)
PLANE_ANGLE_UNIT()
SI_UNIT($,.RADIAN.)
);
#284=(
LENGTH_UNIT()
NAMED_UNIT(*)
SI_UNIT(.MILLI.,.METRE.)
);
ENDSEC;
END-ISO-10303-21;
